Living End - Save The Day Chords & Tabs

 

Save The Day Chords & Tabs

Living End Chords & Tabs

Version: 1 Type: Bass Tab 0 ratings
1 star 2 stars 3 stars 4 stars 5 stars
comments

Save The Day Bass Tab

Song:     Save The Day
Band:     The Living End
CD:       The Living End
Bassist:  Scott Owen
Tabber:   James Bradley

I just whipped this up really fast, so it's probably not 100%
accurate, but it's probably pretty close, so have fun with it.

> means play it more than once

Intro:
G------------------------------------------------------------------
D------------------------------------------------------------------
A--0>--0---5>-5-6-3------------------------------------------------
E--------3---------------------------------------------------------

Verse:
G------------------------------------------------------------------
D------------------------------2-2---------------------------------
A--0-0-0-0-0-0-0-0-0-0-0-0-0-0-----0-0-0-0-0-0-0-0-0-0-0-0-0-0-3-3-
E------------------------------------------------------------------

                                          --------|  
                                    First Ending  V
G---------------------------------|--------------------------------
D---------------------------------|-----------------------------2-2
A----------------3----------------|-0-0-0-0-0-0-0-0-0-0-0-0-0-0----
E--1-1-1-1-1-1-1---1-1-1-1-1-1-3-3|--------------------------------
[ Tab from: http://www.guitartabs.cc/tabs/l/living_end/save_the_day_btab.html ]
           ---------|
    Second Ending   V
G------------------------------------------------------------------
D------------------------------------------------------------------
A--0-0-0-0-0-0-0-0-0-0-0-0-----------------------------------------
E--------------------------3-3-3-3---------------------------------


Pre-Chorus:
G------------------------------------------------------------------
D-----------2-5-2--------------------------------------------------
A-3-3-3-3-3------------------2-5-2---------------------------------
E-----------------1-1-1-1--3---------------------------------------

Chorus:
G------------------------------------------------------------------
D---2-5-2---5-2----------------------------------------------------
A-3-------3-----3-----------2-5-2----------------------------------
E-----------------1-1-1-1-3----------------------------------------

Pre-Solo:
G------------------------------------------------------------------
D------------------------------------------------------------------
A--3>--------------------------------------------------------------
E------------------------------------------------------------------

Solo:
G------------------------------------------------------------------
D------------------------------------------------------------------
A--3>--------------------------------------------------------------
E-----1>-3>--------------------------------------------------------

End on:
G------------------------------------------------------------------
D------------------------------------------------------------------
A--0----0-0-0-0----------------------------------------------------
E------------------------------------------------------------------

Comments