Living End - Prisoner Of Society Chords & Tabs

 

Prisoner Of Society Chords & Tabs

Living End Chords & Tabs

Version: 1 Type: Bass Tab 0 ratings
1 star 2 stars 3 stars 4 stars 5 stars
comments

Prisoner Of Society Bass Tab

THE LIVING END - "Prisoner of Society" - Bass Tab

Common Time(4/4)
Standard Tuning(EADG)

INTRO:
                             (x4)
|------------------|--------------|------------------|
|*-----------------|-------------*|*-----------------|
|*-----------------|-------------*|*-0-0-r-0-3-3-r-3-|
|--0-0-0-r-0-0-r-0-|-0-r-0-0-r-r--|------------------|
   1 & 2 & 3 & 4 &   1 & 2 & 3 4     1 & 2 & 3 & 4 &
             
              (x2)                  (x2)
|------------------|----------|----------|
|-----------------*|*-.-.-.-.-|-.-.-.-.-*|
|-5-5-r-5-7-7-r-7-*|*-0-0-3-3-|-5-5-7-7-*|
|------------------|----------|----------|
  1 & 2 & 3 & 4 &     1 2 3 4   1 2 3 4

1ST VERSE:
|----------|---------|---------|---------|---------|---------|
|*-.-.-.-.-|-.-.-.-.-|-.-.-.-.-|-.-.-.---|-.-.-.---|-.-.-.---|
|*-0-0-0-0-|-0-0-0-0-|-0-0-0-0-|-0-0-0-2-|-3-3-3-3-|-5-5-5-5-|
|----------|---------|---------|---------|---------|---------|
   1 2 3 4   1 2 3 4   1 2 3 4   1 2 3 4   1 2 3 4   1 2 3 4

            ____       ____
           |1.        |2.     
|---------|----------|---------|
|-.-.-.-.-|-.-.-.-.-*|-2-3-4-5-|
|-0-0-0-0-|-0-0-0-0-*|---------|
|---------|----------|---------|
  1 2 3 4   1 2 3 4    1 2 3 4


PRE-CHORUS:
       .         .           .         . 
|-.--.-9--.-.--.-9--.-|-.--.-9--.-.--.-9--.-|
|-7-10---10-7-10---10-|-7-10---10-7-10---10-|
|---------------------|---------------------|
|---------------------|---------------------|
  1 &  2 &  3 &  4 &    1 &  2 &  3 &  4 & 

     .  . .    .  . .      .  . .    .  . .
|--.-9-12-9--.-9-12-9-|--.-9-12-9--.-9-12-9-|
|-10--------10--------|-10--------10--------|
|---------------------|---------------------|
|---------------------|---------------------|
  1  & 2  & 3  & 4  &   1  & 2  & 3  & 4  &

|---.--.-.---.--.-.-|-----.-.-|-.---.---|-.---.---|
|-.-7-10-7-.-7-10-7-|-.-.-5-5-|-7-.-7-.-|-7-.-7-.-|
|-8--------8--------|-8-8-----|---7---7-|---7---7-|
|-------------------|---------|---------|---------|
  1 & 2  & 3 & 4  &   1 2 3 4   1 2 3 4   1 2 3 4

CHORUS:
  . . . .   . . .
|-7-7-7-7-|-7-7-7-.-|-.-.-.-.-|-.-.-.-.-|-.-.-.-.-|-.-.-.-.-|
|---------|-------7-|-8-8-8-8-|-8-8-8-5-|-3-3-3-5-|-3-3-3-5-|
|---------|---------|---------|---------|---------|---------|
|---------|---------|---------|---------|---------|---------|
  1 2 3 4   1 2 3 4   1 2 3 4   1 2 3 4   1 2 3 4   1 2 3 4

|-.-.-.-.-|-.-.-.-.-|
|-2-2-2-2-|-2-2-2-2-|
|---------|---------|
|---------|---------|
  1 2 3 4   1 2 3 4

PRE SECOND VERSE:

2ND VERSE:
|---------|---------|---------|---------|---------|---------|
|-.-.-.-.-|-.-.-.-.-|-.-.-.-.-|-.-.-.---|-.-.-.---|-.-.-.---|
|-0-0-0-0-|-0-0-0-0-|-0-0-0-0-|-0-0-0-2-|-3-3-3-3-|-5-5-5-5-|
|---------|---------|---------|---------|---------|---------|
  1 2 3 4   1 2 3 4   1 2 3 4   1 2 3 4   1 2 3 4   1 2 3 4
[ Tab from: http://www.guitartabs.cc/tabs/l/living_end/prisoner_of_society_btab.html ]
|---------|---------|
|-.-.-.-.-|-2-3-4-5-|
|-0-0-0-0-|---------|
|---------|---------|
  1 2 3 4   1 2 3 4    


PRE-SOLO:
|---------|---------|---------|---------|-.-.-.-.-|-.-.-.-.-|
|-.-.-.-.-|-.-.-.-.-|-.-.-.-.-|-.-.-.-.-|-0-0-1-1-|-0-0-0-0-|
|-0-0-1-1-|-0-0-0-0-|-0-0-1-1-|-0-0-0-0-|---------|---------|
|---------|---------|---------|---------|---------|---------|
  1 2 3 4   1 2 3 4   1 2 3 4   1 2 3 4   1 2 3 4   1 2 3 4

|---------|---------|-.-.-.-.-|-.-------|---------|
|-.-.-.-.-|-.-.-.-.-|-2-2-3-3-|-2-r-r-r-|-r-r-r-r-|
|-0-0-1-1-|-0-0-0-0-|---------|---------|---------|
|---------|---------|---------|---------|---------|
  1 2 3 4   1 2 3 4   1 2 3 4   1 2 3 4   1 2 3 4

SOLO: (This is just a guess...)
          (x3)                      .   .  (x3)  .   .
|--.---.------|----------------9-|--7-.-7---5--|-7-.-7-5-----|
|*-7-.-7---5-*|-7---5-7-7-9-10---|*---7---7---*|---7-----8-5-|
|*---7---7---*|---7--------------|*-----------*|-------------|
|-------------|------------------|-------------|-------------|
   1 2 3 4 &    1 & 2 & 3 & 4  &    1 2 3  4 &   1 2 3 & 4 &

          (x3)                           (x3)         (x2)
|-------------|---------|----------|----------|-----------|
|*-7-.-7---5-*|-7-5-----|*-----5---|---------*|*-.-.-.-.-*|
|*---7---7---*|-----8-5-|*-7-8---8-|-7-8-7-5-*|*-7-7-7-7-*|
|-------------|---------|----------|----------|-----------|
   1 2 3 4 &     1 2 3 4   1 2 3 4    1 2 3 4    1 2 3 4

3RD VERSE:
|----------|---------|---------|---------|---------|---------|
|*-.-.-.-.-|-.-.-.-.-|-.-.-.-.-|-.-.-.---|-.-.-.---|-.-.-.---|
|*-0-0-0-0-|-0-0-0-0-|-0-0-0-0-|-0-0-0-2-|-3-3-3/7-|-5-5-5/7-|
|----------|---------|---------|---------|---------|---------|
   1 2 3 4   1 2 3 4   1 2 3 4   1 2 3 4   1 2 3 4   1 2 3 4

                           
|---------|----------|
|-.-.-.-.-|-.-------*|
|-0-0-0-0-|-0-0-0-0-*|
|---------|----------|
  1 2 3 4   1 2 3 4 

LAST PRE-CHORUS:
                  (x5)
|---------|-----------|-----------------|-----------------|
|---------|*---------*|-----------------|-----------------|
|-0-------|*-r-r-r-r-*|-0-0-0-0-0-0-0-0-|-0-0-0-0-0-0-0-0-|
|---------|-----------|-----------------|-----------------|
  1 2 3 4    1 2 3 4    1 & 2 & 3 & 4 &   1 & 2 & 3 & 4 &

LAST CHORUS:
|---------|-------------|---------|-------------|-.-.-.---|
|-.-.-.---|-------------|-.-.-.---|-------------|-3-3-3-r-|
|-5-5-5-r-|-5---5-5-r-r-|-1-1-1-r-|-1---1-1-r-r-|---------|
|---------|-------------|---------|-------------|---------|
  1 2 3 4   1 & a 2 3 4   1 2 3 4   1 & a 2 3 4   1 2 3 4

                              (x4)
|-------------|-------------------|
|-3---3-3-r-r-|*-2-2-2-2-2-2-2-2-*|
|-------------|*-----------------*|
|-------------|-------------------|
  1 & a 2 3 4    1 & 2 & 3 & 4 &

END:
                (x3)
|-------------------|-------------|
|*-----------------*|-------------|
|*-----------------*|-------------|
|--0-0-0-0-0-0-0-0--|-0-0-0-0-0-r-|
   1 & 2 & 3 & 4 &    1 & 2 & 3 4 

By: Johari Taylor
E-mail: viking@powerup.com.au

Comments