Living End - All Torn Down Chords & Tabs

 

All Torn Down Chords & Tabs

Living End Chords & Tabs

Version: 1 Type: Tab 0 ratings
1 star 2 stars 3 stars 4 stars 5 stars
comments

All Torn Down Tab

   
Artist:  The Living End
Song:  All Torn Down
Album: The Living End


Intro..

First two times Palm muted, next two let it ring a little...

     C#m                     C#m/A                     C#m/Ab          
Ab7

e|---------------4-------------------------4-------------------------4---------------------------|
b|------------5-----5-------------------5-----5-------------------5-------------------4----------|
G|---------6-----------6-------------6-----------6-------------6-------------------5-----5-------|
D|------6-----------------6-------6-----------------6-------6--------------------4----------4----|
A|---4-----------------------0--0---------------------------------------------6------------------|
E|-----------------------------------------------------0--4-------------4--4---------------------|


Heavier bit with more drum and bass....

     C#m                                                A

e|---4--4----4--4--4--------------------------------------------------------|
b|---5--5----4--5--4----------------------------------------------4b--4p2---|
G|---6--6----4--6--4------------------------------------2---2---------------|
D|---6--6----4--6--4----/6--6--4--4---------------------2---2---------------|
A|---4--4----4--4--4-----------------6--6--4--4--2--4---0---0---------------|
E|--------------------------------------------------------------------------|


Staccato Verse Riff...as you play this sorta "bounce" the notes, just
gently lift off after each chord.


     C#m              A

e|---4---4---4---4----5---5---5---5------|
b|---5---5---5---5----5---5---5---5------|
G|---6---6---6---6----6---6---6---6------|
D|---6---6---6---6----7---7---7---7------|
A|---4---4---4---4-----------------------|
E|---------------------------------------|

[ Tab from: http://www.guitartabs.cc/tabs/l/living_end/all_torn_down_tab.html ]
End of verse, just before the chorus...

     E            Ab7

                  P.M.-----lift it....

e|--------0-------------------------------|
b|--------0----------4--4--4--4--4--4-----|
G|---1----1-------5--5--5--5--5--5--5-----|
D|---2------------4--4--4--4--4--4--4-----|
A|---2------------6--6--6--6--6--6--6-----|
E|---0------------4--4--4--4--4--4--4-----|


CHORUS

     A    B    E

e|--------------------------------------|-------------------------------------------|
b|--------4----0------------------------|--------4----0-----------------------------|
G|---2----4----1------------------------|---2----4----1-----------------------------|
D|---2----4----2-------------7----------|---2----4----2-----------------------------|
A|---0----2----2------/7--9-----9---7---|---0----2----2------4/--4p2----------2-----|
E|-------------0--------------------0---|-------------0----------------3b-p0--0-----|

    All   Torn  Down.......




e|----------------------|
b|--------4-----5~~-----|
G|---2----4-----6~~-----|
D|---2----4-----6~~-----|
A|---0----2-----4~~-----|
E|----------------------|




Bit after post-solo chorus...


e|---4----------------|-------------|
b|---5----2----4------|------4~-----|
G|---6----2----4------|------5~-----|
D|---6----2----4------|------4~-----|
A|---4----0----2------|------6~-----|
E|--------------------|------4~-----|


    "You've got no reason, you got no reason now!!"


this next bit goes up a key...

     Bm     Bm A  G     G

e|---2------2-----------3------|
b|---3------3-----------3------|
G|---4------4--2--4-----4------|
D|---4------4--2--5-----5------|
A|---2------2--0--5-----5------|
E|----------------3-----3------|


And then end with the intro!!




Enjoy!



Tabbed by Lee Griffin

leegee@powerup.com.au


Comments