Living Colour - Love Rears Its Ugly Head Chords & Tabs

 

Love Rears Its Ugly Head Chords & Tabs

Living Colour Chords & Tabs

Version: 1 Type: Bass Tab 0 ratings
1 star 2 stars 3 stars 4 stars 5 stars
comments

Love Rears Its Ugly Head Bass Tab

   
#----------------------------------PLEASE NOTE---------------------------------#
#This file is the author's own work and represents their interpretation of the #
#song. You may only use this file for private study, scholarship, or research. #
#------------------------------------------------------------------------------#

LIVING COLOUR
"LOVE REARS ITS UGLY HEAD"
from the album “TIME’S UP”
tabbed
by
Piero Cassini
pierobambino@yahoo.it

It’s been a hard work but I hope I made a good job.
I would point you out a few things you need when you play these tabs:
The song is played in 4/4 but the rhythm is a shuffle blues therefore the song
should be played as in 12/8 ( 1/4= 2/8 + 1/8). 

 Q E Q E
|7-7---7------|:   (2/8 + 1/8 + 2/8 + 1/8)

In some sections of this song there are irregular groupings notated with |-2-|

 |-2-|-2-|-2-|-2-|
Q.	Q.  Q.  Q. 
 |--------7-------|
 |------------7---|
 |-5--5-5---5---5-|
 |----------------|

This is my first tab so if there are any mistakes in my transcription let me know
and I’ll try to correct them as soon as possible...anyway the notes should be
correct (I’ve been listening and playing this song for 2 hours!!!)


Tuning (E A D G) - 'Standard'
 
  Q E Q E Q E   Q. Q                Q E Q E         
||----------------|----------------|----------------|----------------|
||----------------|----------------|----------------|----------------|
||----------------|----------------|7-7---7---------|----------------|
||7-------------7-|5---------------|----------------|----------------|


  Q E Q E Q E   Q. Q                Q E Q E Q E Q E  Q. Q E +Q  E Q E
 |----------------|----------------|----------------|----------------|
 |----------------|----------------|----------------|----------------|
 |----------------|----------------|7-7---7---------|----------------|
 |7-------------7-|5---------------|--------------4-|4—-5-5-(5)-5s7S6|

  Q E Q E Q E   Q. Q                Q E Q E          Q E Q  E Q E
 |----------------|----------------|----------------|--12-----13-----|
 |----------------|----------------|----------------|----11p9---12---|
 |----------------|----------------|7-7---7---------|----------------|
 |7-------------7-|5---------------|----------------|----------------|


  Q E Q E Q E   Q. Q                Q E Q E
 |----------------|----------------|----------------|----------------|
 |----------------|----------------|----------------|----------------|
 |----------------|----------------|7-7---7---------|----------------|
 |7-------------7-|5---------------|----------------|----------------|
  
  Q E Q E Q E   Q. Q                Q E Q E
 |----------------|----------------|----------------|----------------|
 |----------------|----------------|----------------|----------------|
 |----------------|----------------|7-7---7---------|----------------|
 |7-------------7-|5---------------|----------------|----------------|


  Q E Q E Q E   Q. Q E Q E Q E Q E  Q E Q E          Q E Q E Q E Q E
 |----------------|----------------|----------------|----------------|
 |----------------|----------------|----------------|------7---------|
 |----------------|--------------0h|7-7---7---------|--7s9---7S5-----|
 |7-------------7-|5---------------|----------------|------------7p5-|


  Q E Q E Q   E Q. Q E Q E Q E Q E  Q E Q E Q E Q E  Q. Q E +Q  E Q E
 |----------------|----------------|----------------|----------------|
 |----------------|----------------|----------------|----------------|
 |----------------|--------------0h|7-7---7---------|----------------|
 |7-----------0h7-|5---------------|--------------4-|4—-5-5-(5)-5s7S6|


  Q E Q E Q E   Q. Q                Q E Q E           Q.  Q.  Q.  Q.   
 |----------------|----------------|----------------|----------------|
 |----------------|----------------|----------------|----------------|
 |----------------|----------------|7-7---7---------|-----9---10--12-|
 |7-------------7-|5---------------|----------------|----------------|


   Q.  Q.  Q.  +Q.  Q.  Q. +Q.  +Q.  Q.  Q.  Q.  +Q.  Q.  Q. +Q.  +Q.
 |----------------|-7--------------|----------------|-6--------------|
 |---------7---(7)|----------------|---------6---(6)|----------------|
 |\5---5----------|-----5—-(5)--(5)|-4---4----------|-----4—-(4)—-(4)|
 |----------------|----------------|----------------|----------------|


  Q E Q E Q E   Q. Q                Q E Q E           Q.  Q.  Q.  Q.   
 |----------------|----------------|----------------|----------------|
 |----------------|----------------|----------------|----------------|
 |----------------|----------------|7-7---7---------|-----9---10--12-|
 |7-------------7-|5---------------|----------------|----------------|


   Q.  Q.  +Q.  Q.  Q.  Q.  +Q.  Q.  Q.  Q.  +Q.  Q.  Q
 |----------------|----------------|----------------|----------------|
 |----------------|----------------|----------------|----------------|
 |\5---5---(5)--5-|-5---5—--(5)—-5-|-4---4---(4)--4-|-4--------------|
 |----------------|----------------|----------------|----------------|


  Q             Q. Q E Q E Q E Q E  Q E Q E Q E Q E   Q. Q  E   +Q  E  Q  E
 |----------------|----------------|--------------18|s19-19-18-(18)-18S17--|
 |----------------|----------9s7---|--------------17|s18-18-17-(17)-17S16--|
 |----------------|--------------9-|7-7---7---------|----------------------|
 |7-------------7-|5---------------|----------------|----------------------|


  Q E Q E Q E   Q. Q                Q E Q E          Q E  +Q  E +Q E  Q E
 |----------------|----------------|----------------|----------------------|
 |----------------|----------------|----------------|---------9-(9)--------|
 |----------------|----------------|7-7---7---------|9s11-(11)-----11p9h11-|
 |7-------------7-|5---------------|----------------|----------------------|

 
  Q E Q E Q E   Q. Q                Q E Q E
 |----------------|----------------|----------------|----------------|
 |----------------|----------------|----------------|----------------|
 |----------------|----------------|7-7---7---------|----------------|
 |7-------------7-|5---------------|----------------|----------------|

 
  Q E Q E Q E   Q. Q E Q E Q E Q E  Q E Q E          Q E Q E Q E Q E
 |----------------|----------------|----------------|----------------|
 |----------------|----------------|----------------|------7---------|
 |----------------|--------------0h|7-7---7---------|--7s9---7S5-----|
 |7-------------7-|5---------------|----------------|------------7p5-|


  Q. Q E +Q  E Q.  Q. Q E +Q. +Q.   Q E +Q  E Q. +Q. +Q. +Q.   Q. Q.
 |----------------|----------------|----------------|----------------|
 |----------------|----------------|----------------|----------------|
 |----------------|----------------|----------------|----------------|
 |7--6-5-(5)-0h5--|5--4-3-(3)-(3)--|0-0—(0)-0h4—-(4)|(4)-(4)--/5-/19-|


  Q E Q E Q E   Q. Q                Q E Q E           Q.  Q.  Q.  Q.   
 |----------------|----------------|----------------|----------------|
 |----------------|----------------|----------------|----------------|
 |----------------|----------------|7-7---7---------|-----9---10--12-|
 |7------------/7-|5---------------|----------------|----------------|


   Q.  Q.  Q.  +Q. +Q.  Q. +Q.  +Q.  Q.  Q.  Q.  +Q. +Q.  Q. +Q.  +Q.
 |----------------|----------------|----------------|----------------|
 |---------7---(7)|(7)-------------|---------6---(6)|(6)-------------|
 |\5---5----------|-----5—-(5)--(5)|-4---4----------|-----4—-(4)—-(4)|
 |----------------|----------------|----------------|----------------|


  Q E Q E Q E   Q. Q                Q E Q E           Q.  Q.  Q.  Q.   
 |----------------|----------------|----------------|----------------|
 |----------------|----------------|----------------|----------------|
 |----------------|----------------|7-7---7---------|-----9---10--12-|
 |7------------/7-|5---------------|----------------|----------------|


   Q.  Q.  +Q.  Q.  Q.  Q.  +Q.  Q.  Q.  Q.  +Q.  Q.  Q
 |----------------|----------------|----------------|----------------|
 |----------------|----------------|----------------|----------------|
 |\5---5---(5)--5-|-5---5—--(5)—-5-|-4---4---(4)--4-|-4--------------|
 |----------------|----------------|----------------|----------------|

[ Tab from: http://www.guitartabs.cc/tabs/l/living_colour/love_rears_its_ugly_head_btab.html ]
  Q E Q E Q E   Q. Q E Q E Q E Q E   Q  Q  Q  Q. +Q  E  Q.  Q.  Q.  Q.   
 |----------------|----------------|-------------------|----------------|
 |----------------|----------------|-------------------|12--------------|
 |----------------|------------5-6-|/11/11/11\7—-(7)s11|----9---7—-/7---|
 |7-------------7-|5---------7-----|-------------------|----------------|


  Q E Q E Q E   Q. Q                Q E Q E
 |----------------|----------------|----------------|----------------|
 |----------------|----------------|----------------|----------------|
 |----------------|----------------|7-7---7---------|----------------|
 |7-------------7-|5---------------|----------------|----------------|


   Q.  Q.  +Q. +Q.  Q.  Q.  +Q. +Q.  Q.  Q.  +Q. +Q.  Q.  Q.  +Q. +Q.
 |----------------|----------------|----------------|----------------|
 |----------------|----------------|----------------|----------------|
 |----------------|----------------|----------------|----------------|
 |-2---2---(2)-(2)|-2---2—--(2)—(2)|-0---0---(0)-(0)|-0---0---(0)-(0)|
 

                                       |-2-|-2-|-2-||-2-|-2-|-2-|-2-|
   Q.  Q. +Q. +Q.   Q.  Q.  +Q. +Q.  Q.  Q.  Q.  Q.   Q.  Q.  Q.  Q.  
 |----------------|----------------|----------------|----------------|
 |----------------|----------------|----------------|----------------|
 |-2---2--(2)-(2)-|-2—--2---(2)—(2)|-4--4-4-4-4-4-4-|4-4-4-4-4-4-4-4-|
 |----------------|----------------|----------------|----------------|


   Q.  Q.   Q. +Q.  Q. +Q.   Q. +Q. Q.  Q.  Q.  Q.    Q  
 |----------------|----------------|----------------|----------------|
 |----------------|----------------|----------------|----------------|
 |-5---5--s17—(17)|S7—-(7)---9-—(9)|3-------3-------|-3--------------|
 |----------------|----------------|----3-------3---|----------------|


  Q E Q E Q E   Q. Q E Q E Q E Q E   Q E Q E Q E Q E   Q. Q E  +Q   E Q.
 |----------------|----------------|---------1-------|-------------------|
 |----------------|------------0h1-|-2p0-------------|-------------------|
 |----------------|----------2-----|-----2-----------|-------------------|
 |7-------------7-|5---------------|-------3---0-—s12|S4--5s12-(12)S4s11-|


  Q E Q E Q E   Q. Q                Q E Q E
 |----------------|----------------|----------------|----------------|
 |----------------|----------------|----------------|----------------|
 |----------------|----------------|7-7---7---------|----------------|
 |7-------------7-|5---------------|----------------|----------------|


  Q E Q E Q E   Q. Q                Q E Q E
 |----------------|----------------|----------------|----------------|
 |----------------|----------------|----------------|----------------|
 |----------------|----------------|7-7---7---------|----------------|
 |7-------------7-|5---------------|----------------|----------------|


  Q E Q E Q E   Q. Q E Q E Q E Q E  Q E Q E          Q E Q E Q E Q E
 |----------------|----------------|----------------|----------------|
 |----------------|----------------|----------------|------7---------|
 |----------------|--------------0h|7-7---7---------|--7s9---7S5-----|
 |7-------------7-|5---------------|----------------|------------7p5-|

 
  Q E Q E Q  E Q.  Q. Q E +Q. +Q.   Q E +Q  E Q. +Q. +Q.  Q.  Q.  Q.
 |----------------|----------------|----------------|----------------|
 |----------------|----------------|----------------|----------------|
 |----------------|----------------|----------------|----------------|
 |7----------0h7--|5--4-3-(3)-(3)--|0-0—(0)-0h4—-(4)|(4)-/4--/5--/6--|


  Q E Q E Q E   Q. Q                Q E Q E           Q.  Q.  Q.  Q.   
 |----------------|----------------|----------------|----------------|
 |----------------|----------------|----------------|----------------|
 |----------------|----------------|7-7---7---------|-----9---10--12-|
 |7------------/7-|5---------------|----------------|----------------|

   Q.  Q.  Q.  +Q.  Q.  Q. +Q.  +Q.  Q.  Q.  Q.  +Q.  Q.  Q.  Q.  +Q.
 |----------------|-7--------------|----------------|----------------|
 |---------7---(7)|----------------|---------6---(6)|---------6-—-(6)|
 |\5---5----------|-----5—-(5)--(5)|-4---4----------|-4---4—---------|
 |----------------|----------------|----------------|----------------|

                                   |-2-|-2-|-2-|-2-|                                 
   Q.  Q. +Q.  Q.   Q.  Q. +Q.  Q.   Q.  Q.  Q.  Q.   Q.  Q.  Q.  Q.  
 |----------------|----------------|----------------|----------------|
 |----------------|----------------|----------------|----------------|
 |-2---2--(2)—-2-|-0—--0--(0)—--0--|-7--7-7-7-7-7-7-|-7---9---10--12-|
 |----------------|----------------|----------------|----------------|

 |-2-|-2-|-2-|-2-||-2-|-2-|-2-|-2-||-2-|-2-|-2-|-2-||-2-|-2-|-2-|-2-|
   Q.  Q.  Q.  Q.   Q.  Q.  Q. +Q.   Q.  Q.  Q.  Q.   Q.  Q.  Q. +Q.  
 |----------------|----------------|----------------|----------------|
 |-0--0-0--5--0-0-|-4—-0-0-2h4-(4)-|---------4------|----------------|
 |----------------|----------------|\4—-4-4-----4-4-|-7--4-4-5h7-(7)-|
 |----------------|----------------|----------------|----------------|


 |-2-|-2-|-2-|-2-||-2-|-2-|-2-|-2-||-2-|-2-|-2-|-2-||-2-|-2-|-2-|-2-|
   Q.  Q.  Q.  Q.   Q.  Q.  Q.  Q.   Q.  Q.  Q.  Q.   Q.  Q.  Q.  Q.  
 |----9-----8-----|----7-----6-----|----9-----9-----|----------------|
 |----------------|----------------|----------------|----------------|
 |----------------|----------------|7-7---7-7---7-7-|-7---9---10--12-|
 |7-7---7-7---7-7-|5-5---5-5---5-5-|----------------|----------------|


 |-2-|-2-|-2-|-2-||-2-|-2-|-2-|-2-||-2-|-2-|-2-|-2-||-2-|-2-|-2-|-2-|
   Q.  Q.  Q.  Q.   Q. +Q.  Q. +Q.   Q.  Q.  Q.  Q.   Q. +Q.  Q. +Q.  
 |--------7-------|----------------|--------6-------|----------------|
 |------------7---|/14-(14)/16-(16)|------------6---|/13-(13)/14-(14)|
 |-5--5-5---5---5-|----------------|-4--4-4---4---4-|----------------|
 |----------------|----------------|----------------|----------------|


 |-2-|-2-|-2-|-2-||-2-|-2-|-2-|-2-|                 |-2-|-2-|-2-|-2-|
   Q.  Q.  Q.  Q.   Q.  Q.  Q.  Q.  Q  Q  Q  Q  Q  Q  Q.  Q.  Q.  Q.  
 |----9-----8-----|----7-----6-----|----------------|----------------|
 |----------------|----------------|----------------|----------------|
 |----------------|----------------|7--7—-7-—7--7--7|-7---9---10--12-|
 |7-7---7-7---7-7-|5-5---5-5---5-5-|----------------|----------------|

 |-2-|-2-|-2-|-2-||-2-|-2-|-2-|-2-||-2-|-2-|-2-|-2-|
   Q.  Q.  Q.  Q.   Q.  Q.  Q.  Q.   Q.  Q.  Q.  Q.   Q 
 |----------------|----------------|----------------|----------------|
 |--------7-------|--7-----7-----7-|----------------|----------------|
 |-5--5-5---5-5-5-|5---5-5---5-5---|4-4-4-4-4-4-4-4-|-4--------------|
 |----------------|----------------|----------------|----------------|


  Q E Q E Q E   Q. Q                Q E Q E
 |----------------|----------------|----------------|----------------|
 |----------------|----------------|----------------|----------------|
 |----------------|----------------|7---------------|----------------|
 |7-------------7-|5---------------|--0---0---------|----------------|

   Q E Q E Q E  Q. Q                Q E Q E +E
 |----------------|----------------|----------------|----------------||
 |----------------|----------------|----------------|----------------||
 |----------------|----------------|----------------|----------------||
 |/7------------7-|5---------------|0-2s4-0-(0)-----|----------------||

Duration Legend
---------------
W - whole; H - half; Q - quarter; E - 8th; S - 16th; T - 32nd; X - 64th; a - acciaccatura
+ - note tied to previous; . - note dotted; .. - note double dotted
Uncapitalized letters represent notes that are staccato (1/2 duration)
Irregular groupings are notated above the duration line
Duration letters will always appear directly above the note/fret number it
represents the duration for. Duration letters with no fret number below them
represent rests.  Multi-bar rests are notated in the form Wxn, where n is the
number of bars to rest for.  Low
melody durations appear below the staff

Tablature Legend
----------------
 h   - hammer-on
 p   - pull-off
 b   - bend
 /\  - slide into or out of (from/to "nowhere")
 s   - legato slide
 S   - shift slide

Misc Legend
-----------
 |  - bar
||  - double bar
Comments