Living Colour - Elvis Is Dead Chords & Tabs

 

Elvis Is Dead Chords & Tabs

Living Colour Chords & Tabs

Version: 1 Type: Bass Tab 0 ratings
1 star 2 stars 3 stars 4 stars 5 stars
comments

Elvis Is Dead Bass Tab

Living Colour
Elvis Is Dead
Bass

V = vibrato

Intro		  1.	    2.	
G|---------------|---------|-----------|
D|---------------|---------|-----------|
A|---------------|-------5-|-------6-5-|
E|--7-6-5--7-6-5-|-7-6-5---|-7-6-5-----|
			 	     V
[ Tab from: http://www.guitartabs.cc/tabs/l/living_colour/elvis_is_dead_btab.html ]
Slap Part      2.             3.
G|------------|--------------|-------------|
D|------------|-------8---6--|-------6-----|
A|------------|-----4--------|-----4-------|
E|-1-1--4-5-6-|-4h6-----6----|-4h6-----4-6-|



Note:The part between the first and second slap part is hard to
     hear because the bass volume is turned low. I play 
     E|-0-x-x-0-x-x-0-0-0-x-x-0-x| or something close to that. If 
     you have any comments or questions email me at redweasel56@usa.net 

Comments