Living Colour - Desperate People Chords & Tabs

 

Desperate People Chords & Tabs

Living Colour Chords & Tabs

Version: 1 Type: Tab 0 ratings
1 star 2 stars 3 stars 4 stars 5 stars
comments

Desperate People Tab

   
#----------------------------------PLEASE NOTE---------------------------------#
#This file is the author's own work and represents their interpretation of the #
#song. You may only use this file for private study, scholarship, or research. #
#------------------------------------------------------------------------------##
From: "David Letterman" 

The following is my transcription of Desperate People by Living 
Colour, from the first album.  I am hoping someone could help me with a few 
points.  Firstly, the G in what I have called fig1 doesn't sound like a single 
note, but I can't get the chord.  Also, I'm at a loss as to the final 
chord.  

Play all chords as power chords playing the 4th, 5th and 6th stings 
(verse), or triads on the second third and fourth strings  in the seventh and 
fifth positions(chorus).  thus, E, F# and D are A formations, A, B and C# 
are F formations and I play Aii as a D.  A/D is the F fomation with the 
pinky added on to the third string.  The tab should straighten out in a true type 
font, so that all notes are played as single notes, not chords.  Have Fun!

Wile E. Coyote, super genius

send corrections to 
dtturner@charon.engga.uwo.ca
c/o sirijul
Desperate People  (Reid, Calhoun, Glover, Skillings)
(half time)
EBDA/DA

EBDA/DA
(slow down)
EAii

(full time)
F# C#F#C#

EBEB

F# C#EB


fig 1 (2x)

e--------------------------------------------
b--------------------------------------------
G--------------------------------------------
D--------2---------------------------2-------
A--0-1-2-----------------------0-1-2---------
E----------0-3-3-x-0-3-0-4-0-5---------0-3-3-



e--------------------------------------------
b--------------------------------------------
G--------------------------------------------
D--------2---------------------------2-------
A--0-1-2-----------------------0-1-2---------
E----------0-3-3-x-0-3-0-4-0-5---------0-3-3-
(fake)Desperate people
[ Tab from: http://www.guitartabs.cc/tabs/l/living_colour/desperate_people_tab.html ]
e--------------------------------------------
b--------------------------------------------
G--------------------------------------------
D--------2---------------------------2-------
A--0-1-2-----------------------0-1-2---------
E----------0-3-3-x-0-3-0-4-0-5---------0-3-3-
Desperate people

--------------------------------------------
b--------------------------------------------
G--------------------------------------------
D--------2---------------------------2-------
A--0-1-2-----------------------0-1-2---------
E----------0-3-3-x-0-3-0-4-0-5---------0-3-3-
(hear no)Desperate people

e--------------------------------------------
b--------------------------------------------
G--------------------------------------------
D--------2---------------------------2-------
A--0-1-2-----------------------0-1-2---------
E----------0-3-3-x-0-3-0-4-0-5---------0-3-3-
Desperate people

EBDA/DA

e--------------------------------------------
b--------------------------------------------
G--------------------------------------------
D--------2---------------------------2-------
A--0-1-2-----------------------0-1-2---------
E----------0-3-3-x-0-3-0-4-0-5---------0-3-3-
Desperate people

e--------------------------------------------
b--------------------------------------------
G--------------------------------------------
D--------2---------------------------2-------
A--0-1-2-----------------------0-1-2---------
E----------0-3-3-x-0-3-0-4-0-5---------0-3-3-
Desperate people


e--------------------------------------------
b--------------------------------------------
G--------------------------------------------
D--------2---------------------------2-------
A--0-1-2-----------------------0-1-2---------
E----------0-3-3-x-0-3-0-4-0-5---------0-3-3-
Desperate people

e--------------------------------------------
b--------------------------------------------
G--------------------------------------------
D--------2---------------------------2-------
A--0-1-2-----------------------0-1-2---------
E----------0-3-3-x-0-3-0-4-0-5---------0-3-3-
Desperate people


Comments