Living Colour - Cult Of Personality Chords & Tabs

 

Cult Of Personality Chords & Tabs

Living Colour Chords & Tabs

Version: 3 Type: Tab 0 ratings
1 star 2 stars 3 stars 4 stars 5 stars
comments

Cult Of Personality Tab

Cult of Personality


e--------------------------------I        
b--------------------------------I
g----(P)---------(P)-------------I
D----3-0---2-----3-0---2---------I
A--------------------------------I
E--3-----3-----3-----3-----------I
   1   +   2   +   3   +   4  +


e--------------------------------I        
b--------------------------------I
g----(P)---------(P)-------------I
D----3-0---2-----3-0---2-2-------I
A--------------------------------I
E--3-----3-----3-----3-----------I
   1   +   2   +   3   +   4  +



e----------I------------I
b----------I------------I
g---3------I---3--------I
D---3---3--I---3---5----I
A---1---3--I---1---3----I
E-------1--I-------3----I



Riff 2 (3/4)

e--------------------------I
b--------------------------I
g----(P)---------2---------I
D----3-0---5-3-0---3-0-----I
A----------------------3-2-I
E--3-----3-----------------I
   1   +   2   +   3   +

Riff 3 (3/4)
[ Tab from: http://www.guitartabs.cc/tabs/l/living_colour/cult_of_personality_tab_ver_3.html ]
e--------------------------I
b--------------------------I
g----(P)---2-----5-4-0-----I
D----3-0-----3-0-------3-0-I
A--------------------------I
E--3-----3-----------------I
   1   +   2   +   3   +



chorus

e------------------------------------------------------------------I
b------------------------------------------------------------------I
g----------------17----17--16-------17--16---------14-------14-----I
D--3----------19-----17---------17--------------16-------14--------I
A--1--3----20------19-------------------------17-------16----------I
E-----1------------------------------------------------------------I
   



e--------------------------17----------------------------------------I
b------------------------)-------------------------------------------I
g--------12---12--------15--------17--16---17-16-----14----14-12/---I
D-----15------14----------------17------17---------16----14----15/---I
A--15---------15---1----------19-----------------17----16------15/---I
E---------------------1----------------------------------------------I
Comments