Liveonrelease - Im Afraid Of Britney Spears Chords & Tabs

 

Im Afraid Of Britney Spears Chords & Tabs

Liveonrelease Chords & Tabs

Version: 4 Type: Tab 0 ratings
1 star 2 stars 3 stars 4 stars 5 stars
comments

Im Afraid Of Britney Spears Tab

   
Song : I'm Afraid Of Britney Spears
Band : Liveonrelease
Tabbed By : Diamond Jerry (Raptureboy182@yahoo.com)

Standard Tuning
-----------------------------------------------------------------------------

[Intro]
e|-----------------------------------------------------------------------|
B|-----------------------------------------------------------------------|
G|--7-7-x-x-x-x----------------------------------------------------------|
D|--7-7-x-x-x-x----7-7-x-x-x-x----99999999----55555555---(2x)------------|
A|--5-5-x-x-x-x----7-7-x-x-x-x----99999999----55555555-------------------|
E|-----------------5-5-x-x-x-x----77777777----33333333-------------------|

e|-----------------------------------------------------------------------|
B|-----------------------------------------------------------------------|
G|--77777777-------------------------------------------------------------|
D|--77777777----77777777----/99999999----\55555555-----------------------|
A|--55555555----77777777----/99999999----\55555555-----------------------|
E|--------------55555555----/77777777----\33333333-----------------------|

[Solo]
e|---555--333--22------222--33--222--------------------------------------|
B|-----------------555---------------555--33--555--3~---(2x)-------------|
G|-----------------------------------------------------------------------|
D|-----------------------------------------------------------------------|
A|-----------------------------------------------------------------------|
E|-----------------------------------------------------------------------|
[ Tab from: http://www.guitartabs.cc/tabs/l/liveonrelease/im_afraid_of_britney_spears_tab_ver_4.html ]
[Verse]
e|-----------------------------------------------------------------------|
B|--------------------------^^^^^^^^-------------------------------------|
G|--^^^^^^^^----^^^^^^^^----77777777----^^^^^^^^-------------------------|
D|--99999999----77777777----77777777----55555555--------(2x)-------------|
A|--99999999----77777777----55555555----55555555-------------------------|
E|--77777777----55555555----------------33333333-------------------------|

[Chorus]
e|-----------------------------------------------------------------------|
B|-----------------------------------------------------------------------|
G|--7~7777777------------------------------------------------------------|
D|--7~7777777----7~7777777----/9~9999999----\5~5555555----(4x)-----------|
A|--5~5555555----7~7777777----/9~9999999----\5~5555555-------------------|
E|---------------5~5555555----/7~7777777----\3~3333333-------------------|


-repeat intro x1-
-repeat verse x2-
-repeat chorus x1-
-repeat intro x1-
-repeat chorus 1x-

[Chorus2] higher string...
e|---------------------|-----------------------------------------------------|
B|---------------------|-----------------------------------------------------|
G|--88888888-----------|---99999999------------------------------------------|
D|--88888888--88888888-|---99999999--99999999--111111111111111111--77777777--|
A|--66666666--88888888-|---77777777--99999999--111111111111111111--77777777--|
E|------------66666666-|-------------77777777---9-9-9-9-9-9-9-9-9--55555555--|

e|-----------------------------------|
B|-----------------------------------|
G|-1010101010101010------------------|
D|-1010101010101010-1010101010101010-|
A|--8-8-8-8-8-8-8-8-1010101010101010-|
E|-------------------8-8-8-8-8-8-8-8-|

e|-----------------------------------------------------------------------|
B|-----------------------------------------------------------------------|
G|--1111111111111111-----------------------------------------------------|
D|--1111111111111111--1111111111111111--1313131313131313--99999999-------|
A|---9-9-9-9-9-9-9-9--1111111111111111--1313131313131313--99999999-------|
E|---------------------9-9-9-9-9-9-9-9--1111111111111111--77777777-------|

-repeat intro x2 (with solo)-
-repeat chorus till fade (with solo)-

------------------------------------------------------------------------------
Any comments or corrections,just mail me to Raptureboy182@yahoo.com/ICQ #115343571
Comments