Liveonrelease - Im Afraid Of Britney Spears Chords & Tabs

 

Im Afraid Of Britney Spears Chords & Tabs

Liveonrelease Chords & Tabs

Version: 1 Type: Tab 0 ratings
1 star 2 stars 3 stars 4 stars 5 stars
comments

Im Afraid Of Britney Spears Tab

   
LiveonRelease
I'm Afraid Of Britney Spears
Intro Pt.1 (X2) 
     (P.M.….)    (P.M.…..)   (P.M…..)     (P.M……)
E--------------------------------------------------------------
B--------------------------------------------------------------
G-7-7-X-X-X-X-----X-X-X-X-----X-X-X-X-----X-X-X-X--------------
D-7-7-X-X-X-X-7-7-X-X-X-X-9-9-X-X-X-X-5-5-X-X-X-X--------------
A-5-5-X-X-X-X-7-7-X-X-X-X-9-9-X-X-X-X-5-5-X-X-X-X--------------
E-------------5-5---------7-7---------3-3----------------------
(Intro still…)

D5        A5      B5     G5 (X2)
Intro Riff
E-5-3-2-0-2-3-2-0--0---------   X2
B-----------------3-3--------
[ Tab from: http://www.guitartabs.cc/tabs/l/liveonrelease/im_afraid_of_britney_spears_tab.html ]
V.1
(P.M……….)
B5 A5 D5 G5  (X2)
I only just turned 15, I'm filled with hopes and dreams…
I turn my radio on and I hear the strangest song
C.1
D5 A5 B5 G5  (X3)
I'm afraid of Britney Spears, and Christina Aguilera
Backstreet Boys and N Sync, I don't know what to think
Awooooo….. Awooo….
Intro Pt.1 (X1)
Awoooo…..
V.2
(P.M……….)
B5 A5 D5 G5  (X4)
It's slick the way they dress, I heard they all have fake breasts…
One thing I'll do if I can is go on Britney's bus and get a tan…
They dance like they need a cure let's get the number of their choreographer…
They're so worried bout what we'll think they took the time to learn to lip sync…

Bridge
D5 A5 B5 G5  (X3)
Milli Vanilli
Milli Vanilli
Milli Vanilli
Intro Pt.1 (X1)
Milli Vanilli
D5 A5 B5 G5
I'm afraid of Britney Spears and Christina Aguilera
D#5 A#5
I'm afraid of Britney…
E5 B5 C#5 A5
I'm afraid of Britney Spears and Christina Aguilera
F5 C5
I'm afraid of Britney…
F#5 C#5 D#5 B5
I'm afraid of Britney Spears and Christina Aguilera

Intro Pt.1 w. Intro Riff X2

D5 A5 B5 G5 (X8)
I'm afraid of Britney Spears and Christina Aguilera
Backstreet Boys and N Sync, I don't know what to think (Repeat and fade..)
Comments