Liveonrelease - Fake Chords & Tabs

 

Fake Chords & Tabs

Liveonrelease Chords & Tabs

Version: 1 Type: Tab 0 ratings
1 star 2 stars 3 stars 4 stars 5 stars
comments

Fake Tab

Song: Fake
Artist: LiveonRelease
Album: Seeing Red
As tabbed by Joe Muggah	

Intro
e--------------------------------------------------------
B--------------------------------------------------------
G-9-9-9-7-7-7--9-9-9-7-7-7--9-9-9-7-7-7--9-9-9-----------
D-9-9-9-7-7-7--9-9-9-7-7-7--9-9-9-7-7-7--9-9-9----2------
A-7-7-7-5-5-5--7-7-7-5-5-5--7-7-7-5-5-5--7-7-7--2-2------
E-----------------------------------------------3-0------

Verse
e--------------------------------------------------------
B--------------------------------------------------------
G-9-9-9-7-7-7--9-9-9-7-7-7--9-9-9-7-7-7--9-9-9-----------
D-9-9-9-7-7-7--9-9-9-7-7-7--9-9-9-7-7-7--9-9-9------2-2--
A-7-7-7-5-5-5--7-7-7-5-5-5--7-7-7-5-5-5--7-7-7--2-2-2-2--
E-----------------------------------------------3-3-0-0--
("Found lost...")
[ Tab from: http://www.guitartabs.cc/tabs/l/liveonrelease/fake_tab.html ]
Pre-Chorus (each hit 8 times and palm muted)
e--------------------------------------------------------
B--------------------------------------------------------
G--------------------------------------------------------
D-7---5---2---2---7---5---2---2--------------------------
A-7---5---2---2---7---5---2---2--------------------------
E-5---3---0---0---5---3---0---0--------------------------
("Teething...")

Chorus                        end on
e----------------------------|---------------------------
B----------------------------|---------------------------
G-----------------------7-9--|---------------------------
D-2-2-2-------2-2-2-2---7-9--|--2-----2------------------
A-2-2-2--2-2--2-2-2-2---5-7--|--2-2---2------------------
E-0-0-0--3-3--0-0-0-0--------|--0-3---0------------------
("Cursed...")

Bridge (each hit 8 times and palm muted) end on
e---------------------------------------|----------------
B---------------------------------------|----------------
G---------------------------------------|----------------
D-2---5---7---5----2---5---7---5--------|--5-------------
A-2---5---7---5----2---5---7---5--------|--5-(x24)-------
E-0---3---5---3----0---3---5---3--------|--3-------------
("Until you make sense...")

Intro
Verse
Pre-Chorus
Chorus
Intro
Verse
Pre-Chorus
Chorus
Bridge
Chorus
Pre-Chorus
Chorus
Comments