Liveonrelease - Dont Leave Me Alone Chords & Tabs

 

Dont Leave Me Alone Chords & Tabs

Liveonrelease Chords & Tabs

Version: 2 Type: Tab 0 ratings
1 star 2 stars 3 stars 4 stars 5 stars
comments

Dont Leave Me Alone Tab

Song: Don't Leave Me Alone
Artist: LiveonRelease
Album: Seeing Red
As tabbed by Joe Muggah	

Bass Verse (each hit 8 times)
G--------------------------------------------------------
D--------------------------------------------------------
A-----4-------4--------4--------4------------------------
E-1-------4--------1--------4----------------------------
("When I first saw you...")

Pre-Chorus
e--------------------------------------------------------
B--------------------------------------------------------
G--------6-6-6---------6-6-6---------6-6-6---------6-6-6-
D-3-3-3--6-6-6--6-6-6--6-6-6--3-3-3--6-6-6--6-6-6--6-6-6-
A-3-3-3--4-4-4--6-6-6--4-4-4--3-3-3--4-4-4--6-6-6--4-4-4-
E-1-1-1---------4-4-4---------1-1-1---------4-4-4--------
("Have a feeling...")
[ Tab from: http://www.guitartabs.cc/tabs/l/liveonrelease/dont_leave_me_alone_tab_ver_2.html ]
Chorus
e--------------------------------------------------------
B--------------------------------------------------------
G--------------------------------------------------------
D-3-3-3-3-3-3-3-3---6-6-6-6-6-6-6-6----------------------
A-3-3-3-3-3-3-3-3---6-6-6-6-6-6-6-6----------------------
E-1-1-1-1-1-1-1-1---4-4-4-4-4-4-4-4----------------------
("Don't leave me alone...")

Bridge (each hit 8 times)
e--------------------------------------------------------
B--------------------------------------------------------
G-3-------3-----------3---5---5--------------------------
D-3---3---3---3---6---3---5---5--------------------------
A-1---3---1---3---6---1---3---3--------------------------
E-----1-------1---4--------------------------------------

Bass Verse
Pre-Chorus
Chorus
Bass Verse
Pre-Chorus
Chorus
Bridge
Chorus
Comments