Live - Waitress Chords & Tabs

 

Waitress Chords & Tabs

Live Chords & Tabs

Version: 1 Type: Bass Tab

Waitress Bass Tab

   
Live - Waitress
Tabbed By: JMack


Tuning: Half Step Down (Eb Ab Db Gb)



Riff 1
G|---------|
D|-------6-|
A|-4-4-4---|
E|---------|
[ Tab from: http://www.guitartabs.cc/tabs/l/live/waitress_btab.html ]
Riff 2
G|---------------|
D|---------------|
A|-----3-4-----3-|
E|-4-6-----4-6---|

Whistling part transcribed for bass
G|---------------------------------------|
D|---------------------------------------|
A|-4-4-4-6--4-4-4-6--4-4-4-6-4-3---------|
E|-------------------------------6-6-6-4-|