Live - Voodoo Lady Chords & Tabs

 

Voodoo Lady Chords & Tabs

Live Chords & Tabs

Version: 1 Type: Bass Tab 0 ratings
1 star 2 stars 3 stars 4 stars 5 stars
comments

Voodoo Lady Bass Tab

   
Song:      Voodoo Lady
Artist:    Live
Album:     The Distance to Here
Tabbed By: Jason Mangan (j.p.mangan@oceanfree.net)

As with almost all Live songs, bass should be detuned a half step, low to high
Eb, Ab, Db, Gb.
[ Tab from: http://www.guitartabs.cc/tabs/l/live/voodoo_lady_btab.html ]
Main Riff (Used for verses, intro and outro).                             Song Structure:
|----------------|----------------|----------------|----------------|     Intro
|----------------|----------------|----------------|----------------|     1st Verse
|----------------|--------4-4-5-6-|----------------|--------4-4-5-6-|     1st Chorus
|0-0-----0-0-----|0-0-------------|0-0-----0-0-----|0-0-------------|     2nd Verse
 1 * 2 * 3 * 4 *  1 * 2 * 3 * 4 *  1 * 2 * 3 * 4 *  1 * 2 * 3 * 4 *       Pre-Chorus x2
                                                                          3rd Verse 
1st Chorus                                                                Pre-Chorus x2
|----------------|----------------|----------------|----------------|     Chorus x4
|----------------|----------------|----------------|----------------|     Outro
|7-7-7---5-5-5-5-|----------------|7-7-7---5-5-5-5-|----------------|
|----------------|5-5-5-5-5-3-3-3-|----------------|5-5-5-5-5-7-7-7-|
 1 * 2 * 3 * 4 *  1 * 2 * 3 * 4 *  1 * 2 * 3 * 4 *  1 * 2 * 3 * 4 * 

|----------------|----------------|----------------|----------------|
|----------------|----------------|----------------|----------------|
|7-7-7---5-5-5-5-|----------------|7-7-7---5-5-5-5-|----------------|
|----------------|5-5-5-5-5-3-3-3-|----------------|5-5-5-5-5-------|
 1 * 2 * 3 * 4 *  1 * 2 * 3 * 4 *  1 * 2 * 3 * 4 *  1 * 2 * 3 * 4 * 

Pre-Chorus
|------------------|----------------|------------------|----------------|
|------------------|----------------|------------------|----------------|
|5-7-7h8p7---7-77--|5-5-4-----3-3---|5-7-7h8p7---7-77--|----------------|
|------------------|----------------|------------------|3---3--355555---|
 1 * 2   * 3 * 4 *  1 * 2 * 3 * 4 *  1 * 2   * 3 * 4 *  1 * 2 * 3 * 4 * 

Chorus
|----------------|----------------|----------------|----------------|
|----------------|----------------|----------------|----------------|
|7-7-7-7-5-5-5-5-|----------------|7-7-7-7-5-5-5-5-|----------------|
|----------------|5-5-5-5-5-3-3-3-|----------------|5-5-5-5-5-3-3-3-|
 1 * 2 * 3 * 4 *  1 * 2 * 3 * 4 *  1 * 2 * 3 * 4 *  1 * 2 * 3 * 4 * 

Simple enough stuff from Dahlheimer.
Comments