Live - Tired Of Me Chords & Tabs

 

Tired Of Me Chords & Tabs

Live Chords & Tabs

Version: 1 Type: Bass Tab 0 ratings
1 star 2 stars 3 stars 4 stars 5 stars
comments

Tired Of Me Bass Tab

Song: Tired of "Me"
Artist: Live
Album: Mental Jewelry
Tabbed by: Michael Gunter, courtesy of Julia Brault "The Unofficial Chad 
Taylor Fan 		Site"- www.come.to/chadtaylor
Reorganized by: L.A.
					NORMAL TUNING
Intro
G|--------------------------------|
D|-(guitar)-----------------------|
A|-------------0------------------| after the guitar here
E|-----------------1---1---0------|

G|----------------------------|
D|----------------------------| Like the first one (after guitar)
A|-----------0----------------|
E|---------------1---1---/12\-|

Verse 1 (x8)
G|----------------------------------|
D|----------------------------------|
A|---5-3-5-3-5---0------------------|
E|-------------------1---1---0------|

Verse 2
G|------------------------------|          |------------------------------|
D|------------------------------|(x7 then  |------------------------------|
A|--------------6--6--6-6-4-----|     ->)  |------------------------------|
E|-6-----6---6--------------4---|          |-6-----6---6--1--1--1-1---1---|
[ Tab from: http://www.guitartabs.cc/tabs/l/live/tired_of_me_btab.html ]
Chorus (x8)
G|------------------------------------|  The original notation said the 2nd 
and 3rd
D|------------------------------------|  choruses are played a fret higher, 
but I think
A|-------------------3--3--3-3----5---|  it was talking about the guitar 
chords, play it
E|---3---5---5----5-------------------|  yourself to see.

Bridge (x4)
G|----------------------------------|
D|----------------------------------|
A|---6-4-6-4-6----------------------|
E|---------------6-4-6-4-6---6-4-6--|

Interlude (x2)
G|-------------------|-----------------|-----------------|-----------------|
D|-------------------|-----------------|-----------------|-----------------|
A|-------------------|-----------------|-----------------|-----------------|
E|---6-6-6-6-6-6-6-6-|-5-5-5-5-5-5-5-5-|-5-5-5-5-5-5-5-5-|-6-6-6-6-6-6-6-6-| 
then

G|-------------------|-----------------|-----------------|
D|-------------------|-----------------|-----------------|
A|---9-9-9-9-9-9-9-9-|-8-8-8-8-8-8-8-8-|--8\-------------|
E|-------------------|-----------------|-----------------|

Outro
G|--------------|
D|--------------|
A|--------------|
E|--6-6-6-6-6---|

Comments