Live - Sparkle Chords & Tabs

 

Sparkle Chords & Tabs

Live Chords & Tabs

Version: 4 Type: Tab 0 ratings
1 star 2 stars 3 stars 4 stars 5 stars
comments

Sparkle Tab

   
live, Sparkle
David Sussman ds0177@students.law.miami.edu
Live
Song: Sparkle
Album: The Distance To Here
Tabbed by David Sussman

Tune Down 1/2 Step


Verse:
  G  D  D#   Bb  F           C 2x
Eb--3--7--6-6--6---8--8--8-----8--8--8-------------
Bb--3--7--8-8--6---10-10-10----8--8--8---------------
Gb--4--7--8-8--7---10-10-10----9--9--9----------------
Db--5--7--8-8--8---10-10-10----10-10-10------------------
Ab--5--5--6-6--8---8--8--8-----10-10-10---------------
Eb--3--5--6-6--6---8--8--8-----8--8--8-------------



Bass Line
------------------------------------
------------------------------------
----5-6------88---------------------
--3-----6-6-----88------------------


I'm gatherin' up my friends today
and those who recognize the face
as the vision that changed my mind
from hate to faith
was as simple as grapes to wine and sweet as
I'm gatherin' up my friends today
all these hookers and soldiers and swine
and would-be saints
all alone in their rooms that sparkle in their eye
play a song that they'll come outside
to see if 
[ Tab from: http://www.guitartabs.cc/tabs/l/live/sparkle_tab_ver_4.html ]
Chorus: 
  D  E   F#
----------------
----------------
--8--10--12------
--8--10--12------
--6--8---10-------
----------------

D#	  F   G
love will overcome
if this love will make us men
love will draw us in
	    Bb	    C
to wipe our tears away

G  D  D#   Bb  F           C

the day that I was so sweetly sung
by the wind and the thunder moved by "someone"
the feelin' of being lived was so strong
the giver became the gift, all one
the day that I was so sweetly sung
the wind seemed to whisper softly, "oh son,
don't wait for the seas to part or messiahs to come
don't sit around and waste this chance, to see it!"

D#         F   G
love will overcome
if this love will make us men
love will draw us in
	    Bb      C
to take our fear away

LOVE
LOVE
LOVE
LOVE, hey, yeah

love, this day now, this day that I was so
sweetly sung, I know, I know that 
love will overcome

love will overcome
if this love will make us men
love will draw us in
to take our fear away, wipe our tears away
love!
and all my friends are here
in the city I sing my song
in the face of the hooker, the soldier, the swine
I found it, I found it, I found love!!!!!

love will, love will, love will, 
overcome
over come

ds0177@students.law.miami.edu

Comments