Live - Sparkle Chords & Tabs

 

Sparkle Chords & Tabs

Live Chords & Tabs

Version: 3 Type: Tab 0 ratings
1 star 2 stars 3 stars 4 stars 5 stars
comments

Sparkle Tab

   
Person: Lizard

song: "Sparkle"

artist: Live

tab: "Sparkle"
by Live

tuning low to high: Eb,Ab,Db,Gb,Bb,Eb

intro and verse:
[ Tab from: http://www.guitartabs.cc/tabs/l/live/sparkle_tab_ver_3.html ]
----------------------------------
----------------------------------
-----7~8-------10-10--------------
--5--7~8--8----10-10--10-10-------
--5--5~6--8-----8--8--10-10-------
--3--5~6--6-----8--8---8--8-------

Chorus:
"love will..."  
-------------]---------------------------------------------
-------------]---------------------------------------------
--8--5-------]---------------------------------------------
--8--5--5----]--8-6-8-6-8-6-8-6--10-8-10-8-10-8-10-8-------
--6--3--5----]--8-6-8-6-8-6-8-6--10-8-10-8-10-8-10-8-------
--6--3--3----]--6-4-6-4-6-4-6-4---8-6--8-6--8-6--8-6-------

Comments