Live - Sparkle Chords & Tabs

 

Sparkle Chords & Tabs

Live Chords & Tabs

Version: 2 Type: Tab 0 ratings
1 star 2 stars 3 stars 4 stars 5 stars
comments

Sparkle Tab

   
Person: Fabricio Braga

song: Sparkle

artist: Live

tab: This is a (another) great song from The Distance to Here. Although
this tab may look a little scary for some beginners, this song is not
so difficult to play. Anyway, you'd better play along with the cd to
get the correct timing. If you find any mistakes (specially in the
chorus part), please tell me.

Have fun,
Fabricio Braga (fcbraga25@hotmail.com)

P.S.: Lyrics taken from Lyricsearch.net


- Tuning: half-step down

 

Chords used:

  G5  D5  Eb5  Bb5  F5  C5  B8  D8  F8  G8  Bb  C  G5*
---3---x---x----6----x---8---x---x-----------x--x---x--
---5---5---6----8----8--10---2---5---8--10---1--3--10--
--(5)--7---8---(8)--10-(10)--x---x---x---x---3--2--12--
---x--(7)-(8)---x--(10)--x---4---7--10--12---3--0-(12)-
---x---x---x----x----x---x---x---x---x---x---3--1---x--
---x---x---x----x----x---x---x---x---x---x---1--0---x--


- Intro & verse (where only the bass notes are played at first)

6th ---3-----------------6--------------8--8--8-----
5th ---5-----5s6--6-6----8----8--8--8--10-10-10-----
4th ---------7s8--8-8--------10-10-10---------------


I'm gatherin' up my friends today 
and those who recognize the face 
as the vision that changed my mind 
from hate to faith 
was as simple as grapes to wine and 
sweet as 
I'm gatherin' up my friends today 
all these hookers and soldiers and swine 
and would-be saints 
all alone in their rooms that sparkle in 
their eye 
play a song that they'll come outside 
to see if 

- Chorus                                           

6th ------------------3-------------------------
5th ---6----------3---5-------2s5---------------
4th ---8----------5-----------------------------
3rd --------------------------4s7---------------
        love will overcome...                    
[ Tab from: http://www.guitartabs.cc/tabs/l/live/sparkle_tab_ver_2.html ]
6th -------------------------3---------------------
5th -------6---------3-------5----2----------------
4th -------8---------5-----------------------------
3rd ------------------------------4----------------
   if this love will make us men 

6th --------------------------------------------
5th ---6----------3s10--------------------------
4th ---8----------5-----------------------------
3rd --(8)--------(5)s12-------------------------
       love will  draw us in 
            Bb      C
to wipe our tears away

- Verse 2
the day that I was so sweetly sung 
by the wind and the thunder moved by 
"someone" 
the feelin' of being lived was so strong 
the giver became the gift, all one 
the day that I was so sweetly sung 
the wind seemed to whisper softly, "oh 
son, 
don't wait for the seas to part or 
messiahs to come 
don't sit around and waste this chance, to 
see it!" 

- Chorus

love will overcome 
if this love will make us men 
love will draw us in 
to take our fear away 

(same as chorus but without those slides)
LOVE 
LOVE, yeah
LOVE 
LOVE, hey, yeah 

- Bridge

Eb5      C5    G5
love, this day now, this day that I was 
so sweetly sung, I know, I know that 

6th
------------------3-----------------6-------------------------------------
5th
---6---------3----5-----5s6--6-6----8--------------8--8--8--8--8---8s5----
4th
---8---------5----------7s8--8-8------------------10-10-10-10-10--10s7----
       love will overcome 

- Chorus

love will overcome 
if this love will make us men 
love will draw us in 
to take our fear away, wipe our tears 
away 

(again without the slides and that Bb-C)

love! 
and all my friends are here 
in the city I sing my song 
in the face of the hooker, the soldier, the 
swine 
I found it, I found it, I found love!!!!! 

love will, love will, love will, 
overcome 
over come


6th ------------------3---|----------------------
5th ---6----------3---5---|----6--8--10----------
4th ---8----------5-------|----8-10--12----------
3rd ----------------------|----------------------
2nd ----------------------|---------(13s15--13)--


SUBMIT: Send
Comments