Live - Simple Creed Chords & Tabs

 

Simple Creed Chords & Tabs

Live Chords & Tabs

Version: 5 Type: Tab 0 ratings
1 star 2 stars 3 stars 4 stars 5 stars
comments

Simple Creed Tab

   
As with all Live song this song is played a Semi tone down.

Intro

Eb -0----------------
Bb -3----------------
Gb -2-----------------
Db -0--3-2-0--------
Ab -0----------3-2-0
Eb  -0-----------------

Verse - All D 
Bridge C,G
Chorus Riff 
[ Tab from: http://www.guitartabs.cc/tabs/l/live/simple_creed_tab_ver_5.html ]
Bb ---7--5-------------5------------
Gb --------7--5---5h7-----7--5--4

During The bit with Tricky Rapping just pick at a Dsus Chord or do a few
Stabs on a D sus as there is little actual guitar playing to tab .

Intro 
Verse 
Bridge
Chorus 
Intro 
Verse 
Bridge
Chorus 
Tricky Rapping Bit 
Bridge 
Chorus


Comments