Live - Selling The Drama Chords & Tabs

 

Selling The Drama Chords & Tabs

Live Chords & Tabs

Version: 4 Type: Tab 0 ratings
1 star 2 stars 3 stars 4 stars 5 stars
comments

Selling The Drama Tab

   
Selling the Drama by Live

Tune Guitars Down Half a Step
Riff 1:           
|----------|      
|----------|
|----------|
|----------|
|--2^3-(2)0|
|----------|

Riff 2:
|--0-0-0-0-0-0---0-0-0---0-0-0---0-0-0---0-0-0-|
|--1-1-1-1-1-1/3-3-3-3/5-5-5-5/7-7-7-7/8-8-8-8-|
|----------------------------------------------|
|----------------------------------------------|
|----------------------------------------------|
|----------------------------------------------|

|--0-----0--0--0-----0--0--0-----0--0-----0----|
|--8/10--10-10-10/12-12-12-12/15-15-15/17-17---|
|----------------------------------------------|
|----------------------------------------------|
|----------------------------------------------|
|----------------------------------------------|


[ Tab from: http://www.guitartabs.cc/tabs/l/live/selling_the_drama_tab_ver_4.html ]
Solo:
   Dsus2                                Esus2
|--0--0-----(0)--0--0--0--0--0--0--------------|
|--5-(5)^6-------17-17----17-17-17--12--12-----|
|---------------------------------------12-----|
|----------------------------------------------|
|----------------------------------------------|
|----------------------------------------------|
                                   Dsus2
|--------------12------------------0-----------|
|----------14--12--14--14--14--12--12/15-------|
|--14--14--14--12--14--14--14--12--------------|
|--14--14--14------14--14--14------------------|
|----------------------------------------------|
|----------------------------------------------|
                              Csus2
|--0--0--0--0--0--0--0--0--0--0--0--0--0--0--0-|
|--15-15-15-15-15-15-15-15-15-15/17-17-17-17-17|
|----------------------------------------------|
|----------------------------------------------|
|----------------------------------------------|
|----------------------------------------------|
                                G
|--0--0--0----------------------3--------------|
|--17-17-17\--------------------3--------------|
|-------------------------------0--------------|
|-------------------------------0--------------|
|------------------2^3-(2)p0----2--------------|
|-------------------------------3--------------|
   D        G        D  Dsus4 D    G
|--2--------3--------2--3-----2----3-----------|
|--3--------3--------3--3-----3----3-----------|
|--2--------0--------2--2-----2----0-----------|
|--0--------0--------0--x----------0-----------|
|--x--------2--------x--x----------2-----------|
Comments