Live - Selling The Drama Chords & Tabs

 

Selling The Drama Chords & Tabs

Live Chords & Tabs

Version: 2 Type: Tab 0 ratings
1 star 2 stars 3 stars 4 stars 5 stars
comments

Selling The Drama Tab

selling the drama - live


db= double bend


 |
 |
.| 
.|  = repeat 
 |
 |


 |                              repeat from here
 |                                                                                   
 |.                           |  ----------------------------------------------------------- |
 |. = reapeat from   (example)|  ----------------------------------------------------------- |
 |                            |. --------------------------------------------2--------------.|
 |                            |. -----------2---------------0------------2-4---4-2----------.|
                              |  ------2--4---4-2-------2-4---4-2----0-4-----------4-2------ |                
                              |  -0--4------------4-0-4-----------4--------------------4-0-- |
4
[ Tab from: http://www.guitartabs.cc/tabs/l/live/selling_the_drama_tab_ver_2.html ]
e-------2-2-2-2-2--4-4-4-4-4--2-2-2-2-2--4-4------4-4-4--6-6-6-6-6--6-6-6-6-6--7--- | 
b-------2-2-2-2-2--6-6-6-6-6--2-2-2-2-2--6-6-7-6--6-6-6--7-7-7-7-7--6-6-6-6-6--7--- | repeat 
g-------3-3-3-3-3--6-6-6-6-6--3-3-3-3-3--6-6------6-6-6--8-8-8-8-8--6-6-6-6-6--8---.| 1once
d-------4-4-4-4-4--6-6-6-6-6--4-4-4-4-4--6-6------6-6-6--8-8-8-8-8--8-8-8-8-8--9---.|
a-1db---4-4-4-4-4--4-4-4-4-4--4-4-4-4-4--4-4------4-4-4--6-6-6-6-6--8-8-8-8-8--9--- |
e----4--2-2-2-2-2--4-4-4-4-4--2-2-2-2-2--4-4------4-4-4--6-6-6-6-6--6-8-8-8-8--7--- |


e-7-7-7-7-7-7-7-7-7--9--9--9--9--9--9--9--9--9--9--9--9--9--| ---6-6-6-6-6--4-4-4-4-4-- |
b-7-7-7-7-7-7-7-7-7--9--9--9--9--9--9--9--9--9--9--9--9--9--| ---7-7-7-7-7--4-4-4-4-4-- |
g-8-8-8-8-8-8-8-8-8--10-10-10-10-10-10-10-10-10-10-10-10-10-|.---8-8-8-8-8--5-5-5-5-5--.|repeat 
d-9-9-9-9-9-9-9-9-9--11-11-11-11-11-11-11-11-11-11-11-11-11-|.---8-8-8-8-8--6-6-6-6-6--.|4times
a-9-9-9-9-9-9-9-9-9--11-11-11-11-11-11-11-11-11-11-11-11-11-| ---6-6-6-6-6--6-6-6-6-6-- |
e-7-7-7-7-7-7-7-7-7--9--9--9--9--9--9--9--9--9--9--9--9--9--| ---6-6-6-6-6--4-4-4-4-4-- |


e--7---------------------------------------------------
b--7---------------------------------------------------
g--8-----repeat from beginging-------------------------
d--9---------------------------------------------------
a--9---------------------------------------------------
e--7---------------------------------------------------
Comments