Live - Selling The Drama Chords & Tabs

 

Selling The Drama Chords & Tabs

Live Chords & Tabs

Version: 1 Type: Tab 0 ratings
1 star 2 stars 3 stars 4 stars 5 stars
comments

Selling The Drama Tab

artist: live
song: selling the drama


tuned down half a step


verses

eb-----------3----2-3-2-3--3---2-3-2-3--
Bb-----------3----3--------3---3--------
Gb-----------0----2--------0---2--------
Db-----------0----0--------0---0--------
Ab--2b3r2p0--2-------------2------------
Eb-----------3-------------3------------


eb---0---2--------
Bb---0---3--------
Gb---0---2---5----
Db---2---4---5----
Ab---2---2---3----
Eb---0------------


pre-chorus

gtr 1

eb---0----
Bb---3----
Gb---2----
Db---0----
Ab--------
Eb--------

gtr 2

eb--------------------------------------------
Bb---1/3-3/5-5/7-7/8-8/10-10/12-12/15-15/17---
Gb--------------------------------------------
Db--------------------------------------------
Ab--------------------------------------------
Eb--------------------------------------------


chorus

gtr 1

eb---0--0--0--0----
Bb---0--2--0--2----
Gb---0--2--0--2----
Db---2--2--2--2----
Ab---2--0--2--0----
Eb---0-----0-------

gtr 2
[ Tab from: http://www.guitartabs.cc/tabs/l/live/selling_the_drama_tab.html ]
eb-----------------------
Bb--17--(x8)---14--(x8)--
Gb-----------------------
Db-----------------------
Ab-----------------------
Eb-----------------------

gtr1

eb---0---
Bb---3---
Gb---0---
Db---2---
Ab---3---
Eb-------


2nd chorus leading into the solo...

gtr 1

eb---0---0---
Bb---3---3---
Gb---0---2---
Db---2---0---
Ab---3-------
Eb-----------

gtr 2

eb--------------------------------------------------------------------------------
Bb--3b5-5b6rb--/12-12-10-10-10/12-12-10-10/12-12-12/15-15-15--15-15-15-15/17------
Gb--------------------------------------------------------------------------------
Db--------------------------------------------------------------------------------
Ab--------------------------------------------------------------------------------
Eb--------------------------------------------------------------------------------


verse
pre-chorus
chorus


finish on c

eb---0---
Bb---3---
Gb---0---
Db---2---
Ab---3---
Eb-------



tabbed by matt rosengarten
maros5@student.monash.edu
Comments