Live - Selling The Drama Chords & Tabs


Selling The Drama Chords & Tabs

Live Chords & Tabs

Version: 2 Type: Bass Tab 0 ratings
1 star 2 stars 3 stars 4 stars 5 stars

Selling The Drama Bass Tab

    From: (Sjahrial I Thahir)
    Subject: Bass Tab for Selling the Drama
    Date: Thu, 16 Jan
[ Tab from: ]
    Bass Tab: Selling The Drama by Live take from Throwing Cooper
    Half step down tuned
    Verse :
          G        D        G      D         E              B       C
    D	-----------0--0----------0--0------2-2-0-0---------------
    A	-----------------------------------------------2-2---3-3---
    E	---3--3-----------3--3-----------0------------------------
    Pre Chorus
    D	-----------------------------------------------	
    A	-----12-12-12-12-10-10-10-10-9-9-9-9-5-5-5-5---     2 times
    E	-----------------------------------------------
           Em              A
    D	----------------------2-2-0-0--------
    A	-----2-2-0-0-----0------------4-4---- 
    E	--0----------3-3---------------------
           Em              C
    D	----------------------
    A	-----2-2-0-0-----2---- 
    E	--0----------3-3------
    This is just one of the variation that Patrick use. Actually it is from
    the CD.
    Patrick used a different variation when he played at Woodstock 94 in
    Verse part.
    Any suggestion or correction or anything at all e-mail at