Live - Run To The Water Chords & Tabs

 

Run To The Water Chords & Tabs

Live Chords & Tabs

Version: 2 Type: Tab 0 ratings
1 star 2 stars 3 stars 4 stars 5 stars
comments

Run To The Water Tab

   
Band: Live
Song: Run To The Water
Note: After the key change barre chords sound better, but I just wrote it the simplest way.  Please email me with any comments or corrections (dreliz@bellatlantic.net) 

Chords used:                                      
   C  G   Am  F    F(barre) D   A               
--0---3---0---1---1---------2---0
--1---0---1---1---1---------3---2
--0---0---2---2---2---------2---2
--2---0---2---3---3---------0---2
--3---2---0---0---3---------0---0
--0---3---0---x---1---------x---0

Intro:                                               Verse:
       C   G   Am                                         C   G  Am
eb--0---3---0-----0p1p0			--0---3---0----------------------------------
Bb--1---0---1------------ 			--1---0---1 ---------------------------------             
Gb--0---0---2------------   		            --0---0---2 ---------------------------------                  
Db--2---0---2------------  2x    		--2---0---2----------------------------------              
Ab--3---2---0------------			--3---2---0----------------------------------
Eb--0---3---0------------			--0---3---0----------------------------------
						     Oh, desert speak to my heart. 
         C        G      Am       Am				           C          G
-------0-------3------0-------0----------------------------------------------0--------3-----
-------1-------0------1-------1----------------------------------------------1--------0-----
-------0-------0------2-------2----------------------------------------------0--------0-----
-------2-------0------2-------2----------------------------------------------2--------0-----
-------3-------2------0-------0----------------------------------------------3--------2-----
-------0-------3------0-------0----------------------------------------------0--------3-----
Oh, woman of the earth.       Maker of children who weep for love.  Maker of this 
  Am   Am     						      C G  Am   C
--0-----0--------------------------------------------------------0--3--0-----0--------
--1-----1--------------------------------------------------------1--0--1-----1--------
--2-----2--------------------------------------------------------0--0--2-----0--------
--2-----2--------------------------------------------------------2--0--2-----2--------
--0-----0--------------------------------------------------------3--2--0-----3--------
--0-----0--------------------------------------------------------0--3--0-----0--------
birth.   'Til your deepest secrets are known to me I will not be moved.  I will 
   C      G      F                          G	           F		    G
--0-----3-----1---------------------3-------------1--------------------3-------------
--1-----0-----1---------------------0-------------1--------------------0-------------
--0-----0-----2---------------------0-------------2--------------------0-------------
--2-----0-----3---------------------0-------------3--------------------0-------------
--3-----2-----0---------------------2-------------0--------------------2-------------
--0-----3-----x---------------------3-------------x--------------------3-------------
   not be moved.  Don't try to find the answer if there ain't no question here.



   F		        G                         F	          G	     Am  C      C    G  Am
--1---------------------3-------------------1--------------3--------------0---0-----0---3---0
--1---------------------0-------------------1--------------0--------------1---1-----1---0---1
--2---------------------0-------------------2--------------0--------------2---0-----0---0---2
--3---------------------0-------------------3--------------0--------------2---2-----2---0---2
--0---------------------2-------------------0--------------2--------------0---3-----3---2---0
--x---------------------3-------------------x--------------3--------------0---0-----0---3---0
      Brother let your heart be wounded and give no mercy to your  fear.  
						         C         G       Am
------------------------------------------------------------0-------3-------0--------------------
------------------------------------------------------------1-------0-------1--------------------
--.---------------------------------------------------------0-------0-------2--------------------
------------------------------------------------------------2-------0-------2--------------------
------------------------------------------------------------3-------2-------0--------------------
------------------------------------------------------------0-------3-------0--------------------
Adam and Eve live down the street from me.  Babylon is every town.  It's as crazy as
			    C	      G	       F                            G		    F(barre)
-----------------------------0---------3--------1----------------------3-------------------1--------
-----------------------------1---------0--------1----------------------0-------------------1--------
-----------------------------0---------0--------2----------------------0-------------------2--------
-----------------------------2---------0--------3----------------------0-------------------3--------
-----------------------------3---------2--------0----------------------2-------------------3--------
-----------------------------0---------3--------x----------------------3-------------------1--------
it's ever been.  Love's a stranger all around. In a moment we lost our minds here and lay
        G		F(barre)                                 G  G     G   G   G    G      C 
------3-----------1---------------1---1--1--1-----3--3----3---3---3----3-----0
------0-----------1---------------1---1--1--1-----0--0----0---0---0----0-----1
------0-----------2---------------2---2--2--2-----0--0----0---0---0----0-----0
------0-----------3---------------3---3--3--3-----0--0----0---0---0----0-----2
------2-----------3---------------3---3--3--3-----2--2----2---2---3----3-----3
------3-----------1---------------1---1--1--1-----3--3----3---3---3----3-----0
our spirits down.  Today we lived a thousand years.  All we have is now. 
Chorus:
 C	      G			Am    F(barre)			     C
-0-----------3----------------------0-----1------------------------------0------------------------
-1-----------0----------------------1-----1------------------------------1------------------------
-0-----------0----------------------2-----2------------------------------2------------------------
-2-----------0----------------------2-----3------------------------------0------------------------
-3-----------2----------------------0-----3------------------------------3------------------------
-0-----------3----------------------0-----1------------------------------0------------------------
Run to the water and find me there. Burnt to the core but not broken. Cut through the



[ Tab from: http://www.guitartabs.cc/tabs/l/live/run_to_the_water_tab_ver_2.html ]
 G			    Am		   C			   Am
-3----------------------------0---------------0-------------------------0-----------0---3---0
-0----------------------------1---------------1-------------------------1-----------1---0---1
-0----------------------------2---------------2-------------------------2-----------2---0---2
-0----------------------------2---------------0-------------------------2-----------0---0---2
-2----------------------------0---------------3-------------------------0-----------3---2---0
-3----------------------------0---------------0-------------------------0-----------0---3---0
madness of these streets below the moon.   These streets below the moon. 
 Verse: 
        C			        C        G   Am	      C
------0-------------------------0-------3----0----------0---------------------------------------------
------1-------------------------1-------0----1----------1---------------------------------------------
------2-------------------------2-------0----2----------2---------------------------------------------
------0-------------------------0-------0----2----------0---------------------------------------------
------3-------------------------3-------2----0----------3---------------------------------------------
------0-------------------------0-------3----0----------0---------------------------------------------
And I will never leave you 'til we can say "This world was just a dream, we were sleepin'
    C	  G       Am	          C      G     F		        G			   F
---0------3-------0--------------0-----3----1---------------------3--------------------1-------------
---1------0-------1--------------1-----0----1---------------------0--------------------1-------------
---2------0-------2--------------2-----0----2---------------------0--------------------2-------------
---0------0-------2--------------0-----0----3---------------------0--------------------3-------------
---3------2-------0--------------3-----2----0---------------------2--------------------0-------------
---0------3-------0--------------0-----3----x---------------------3--------------------x-------------
      now we are awake." 'Til we can stay. In a moment we lost our minds here and dreamt 
     G		        F     F    F    F   F    F	 G       G        G     G   G        G	 C
----3------------------1----1---1---1---1---1-----3-------3------3-----3---3------3---------0
----0------------------1----1---1---1---1---1-----0-------0------0-----0---0------0---------1
----0------------------2----2---2---2---2---2-----0-------0------0-----0---0------0---------2
----0------------------3----3---3---3---3---3-----0-------0------0-----0---0------0---------0
----2------------------0----0---0---0---0---0-----2-------2------2-----2---2------2---------3
----3------------------x----x---x---x---x---x-----3-------3------3-----3---3------3---------0
the world was round. A million mile fall from grace. Thank God we missed the ground.
Chorus:
    C	      G			Am    F(barre)			    C
---0---------3---------------------0------1-----------------------------0---------------------------
---1---------0---------------------1------1-----------------------------1---------------------------
---0---------0---------------------2------2-----------------------------0---------------------------
---2---------0---------------------2------3-----------------------------2---------------------------
---3---------2---------------------0------3-----------------------------3---------------------------
---0---------3---------------------0------1-----------------------------0---------------------------
Run to the water and find me there.  Burnt to the core but not broken. We'll cut through



        G		          	             Am		          F(barre)			     Am      G
------3------------------------------0------------------------1----------------------------0-------3--
------0------------------------------1------------------------1----------------------------1-------0--
------0------------------------------2------------------------2----------------------------2-------0--
------0------------------------------2------------------------3----------------------------2-------0--
------2------------------------------0------------------------3----------------------------0-------2--
------3------------------------------0------------------------1----------------------------0-------3--
the madness of these streets below the moon.With a nuclear fire of love in our hearts.Yeah
Bridge:
         G	 Am   C		    G                                         Am		C
-------3-----------0----0---------------------3---------------------------------0--------------0------
-------0-----------1----1---------------------0---------------------------------1--------------1------
-------0-----------2----0---------------------0---------------------------------2--------------0------
-------0-----------2----2---------------------0---------------------------------2--------------2------
-------2-----------0----3---------------------2---------------------------------0--------------3------
-------3-----------0----0---------------------3---------------------------------0--------------0------
I can see it now lord out beyond all the breakin of waves and the tribulation. It's a place &
                      							Solo:
  G			   G	         G       F(barre)  G              C		G          Am
-----3----------------------3------------3----------1------3	---8--8--8-8--7--7--7-8\5v---
-----0----------------------0------------0----------1------0           ----8--8--------8--8-----------
-----0----------------------0------------0----------2------0           ---------------------------------
-----0----------------------0------------0----------3------0           ---------------------------------
-----2----------------------2------------2----------3------2           ---------------------------------
-----3----------------------3------------3----------1------3           ---------------------------------
the home of ascended souls who swam out there in love.  
	F	     C	       F	    G		      C
----------------------------------------------------------------------------------------
---------------------------------------------------------5v-----------8v-------8--10v
--7-9-10v--10v--9-7-9v----5-5--7\0v---0-0---5-7--------------------------------
-------------------------------------------------7--------------------------------------
----------------------------------------------------------------------------------------    
Chorus:
 D	        A	           G	           G	      G		    D		  D
-2------------0----------3----------------3-------------3--------------2---------------2-----------
-3------------2----------0----------------0-------------0--------------3---------------3-----------
-2------------2----------0----------------0-------------0--------------2---------------2-----------
-0------------2----------0----------------0-------------0--------------0---------------0-----------
-0------------0----------2----------------2-------------2--------------0---------------0-----------
-x------------0----------3----------------3-------------3--------------x---------------x-----------
Run to the water and find me there. Burnt to the core but not broken. We'll cut through




       A				 G			 G 			      D
-----0------------------------------3-------------------------3----------------------------2
-----2------------------------------0-------------------------0----------------------------3
-----2------------------------------0-------------------------0----------------------------2
-----2------------------------------0-------------------------0----------------------------0
-----0------------------------------2-------------------------2----------------------------0
-----0------------------------------3-------------------------3----------------------------x
the madness of these streets below the moon. With a nuclear fire of love in our hearts. 
 D	     A	          G	  G				D			A
-2----------0-----------3----------3---------------------------------2-------------------------0------
-3----------2-----------0----------0---------------------------------3-------------------------2------
-2----------2-----------0----------0---------------------------------2-------------------------2------
-0----------2-----------0----------0---------------------------------0-------------------------2------
-0----------0-----------2----------2---------------------------------0-------------------------0------
-x----------0-----------3----------3---------------------------------x-------------------------0------
Rest easy baby, rest easy. And recognize it all as light & rainbows smashed to smithereens
	D    G      D	         A		  G        D	         A
---------2---3------2-----------0--------------------3------2--------------0------2----3p-2p-0--
---------3---0------3-----------2--------------------0------3--------------2------3---------------
---------2---0------2-----------2--------------------0------2--------------2------2---------------
---------0---0------0-----------2--------------------0------0--------------2------0---------------
---------0---2------0-----------0--------------------2------0--------------0------0---------------
---------x---3------x-----------0--------------------3------x--------------0------x---------------
and be happy.    Run to the water and find me there. Run to the water.                 



Comments