Live - I Alone Chords & Tabs

 

I Alone Chords & Tabs

Live Chords & Tabs

Version: 2 Type: Bass Tab 0 ratings
1 star 2 stars 3 stars 4 stars 5 stars
comments

I Alone Bass Tab

i alone
live 
by. billbonic2001




verse
---------------------------------------------------------------------
---------------------------------------------------------------------
--------5----3-----------5  3h5----------------------------------------------
--3----------------3-------------------------------------------------

[ Tab from: http://www.guitartabs.cc/tabs/l/live/i_alone_btab_ver_2.html ]
inter to chorus
------------------------------------------------------------------
------------------------------------------------------------------
-2222222222222 2222222222222------------------------------------------------------------------
-------------------------------------------------------------------


chorus
--------------------------------------------------------------------
--------------------------------------------------------------------
-----2------------------2---------------------------------------------
-0------3---------0----------3----5--------------------------------------
Comments