Live - Dolphins Cry Chords & Tabs

 

Dolphins Cry Chords & Tabs

Live Chords & Tabs

Version: 2 Type: Tab 0 ratings
1 star 2 stars 3 stars 4 stars 5 stars
comments

Dolphins Cry Tab

   
================================================================================
         Title : the dolphins cry
        Artist : Live 
         Album : A distance to here
Transcribed by : transcribed by Nick wong
================================================================================

Legend
------

 h  = hammer-on
 p  = pull-off
 b  = bend
 r  = bend release
 /  = slide up/down
<5> = natural harmonic
[5] = artifical harmonic
 ~  = vibrato
 tr = trill

Chord Diagrams (low to high)
----- --------

Cm	0 3 5 5 4 3
Cm/Ab	4 0 5 5 4 0
Bsus4	0 1 3 3 4 1
Badd9	X 1 3 3 1 1
Eb	X 6 8 X X X
Ab	6 8 X X X X
F	1 3 3 2 1 1


          Cm    Cm/Ab       Cm Cm/Ab Bbsus4     Badd9         F


E-||----3--3--3---3----3--3--3--3---1--1--1----1--1--1-||--1--------
B-||---4--4--4---4----4--4--4--4---4--4--4----1--1--1--||--1--------
G-||---5--5--5---5----5--5--5--5---3--3--3----3--3--3--||--2--------
D-||---5--5--5---5----5--5--5--5---3--3--3----3--3--3--||--3--------
A-||---3--3--3--------3--3--3--=----1--1--1----1--1--1--||--3--------
E-||-------------=-4-------------4-----------------------------------||--1--------
                      Verse/Intro  repeated about 3 times each (clean)

            Cm  Badd9    F         Cm  Badd9

[ Tab from: http://www.guitartabs.cc/tabs/l/live/dolphins_cry_tab_ver_2.html ]
E|--------3--3--1--1--1--1--1----3--3--1--1----------------------------------------
B|--------4--4--1--1--1--1--1----4--4--1--3----------------------------------------
G|--------5--5--3--3--2--2--2----5--5--3--3----------------------------------------
D|--------5--5--3--3--3--3--3----5--5--3--1--2b4-2b4-2b4-2-------------
A|--------3--3--1--1--3--3--3----3--3--1--1----------------------------------------
E|--------------------1--1--1----------------------------------------------------------------
               Chorus (dirty)

              Eb    Bb    Ab    F


E|-----------------------------------------------------------------------------
B|--------------------------------------------------------11p8---------r--
G|--------------------------------------------------------------10b12----
D|----------8--8-------------------------------------------------------------
A|----------6--6--8--8--6--6--3--3-----------------------------------
E|----------------6--6--4--4--1--1--------------------------------------
                           bridge(x2) dirty


                       Solo ontop of verse riff

E|---------------------------------------------------------13/15--------------------------
B|----------------------11\-8--11/---13---16--16-16/18\16-------------4------
G|-8---10-10-10-10b12---------------------------------------------17----------3--
D|--------------------------------5---------------------------------------------------------------
A|-------------------------------------------------------------------------------------------------
E|-------------------------------------------------------------------------------------------------
          This was made with Power tab  

The note that rings through before the chorus is 6 on the B string(F)
with heavey vibrato and feedback

Have fun
Nick WOng
nickwong1957@hotmail.com

Comments