Live - Cheetah Chords & Tabs

 

Cheetah Chords & Tabs

Live Chords & Tabs

Version: 1 Type: Chords 0 ratings
1 star 2 stars 3 stars 4 stars 5 stars
comments

Cheetah Chords

   
(E is played on the 12th fret, B on the 7th, A on the 5th and so on...)

[E]  [B] (4x)

E             B
   When I was her
   And she was me
E          B              A               G#  F#
   We got along till we became ourselves 

E               B
   When she was me
   And I was her
E          B              A               G#       F#      A
   We got along till we became ourselves, trampled in this rut
              G#           F#       E
   Divide our stuff, we're breaking up
 
[E]  [B] (2x)

E              B     
   You can't believe 
   How much pain
E             B          A    G#  F#
   Calling my mama every day

E                B
   When I calmed down
   And saw the sun
E               B                    A               G#  F#
   Put down the bottle, put down the gun, i've had enough
A             G# F#  A              G# F#         
   Divide our stuff, we're breaking up 

[E]  [B] (2x)
[ Tab from: http://www.guitartabs.cc/tabs/l/live/cheetah_crd.html ]
Eb|----------------------------------------|
Bb|----------------------------------------|
Gb|------------11------------11------------|
Db|--14-13-11------14-13-11------14p13p11--|
Ab|----------------------------------------|
Eb|----------------------------------------|

Eb|---------------------------------|
Bb|---------------------------------|
Gb|------------11------------11b-9--|
Db|--14-13-11------14-13-11---------|
Ab|---------------------------------|
Eb|---------------------------------|

[E]  [B] (2x)

E             B
   When I was her
   And she was me
E          B              A               G#  F#
   We got along till we became ourselves 

E               B
   When she was me
   And I was her
E          B              A               G#       F#      A
   We got along till we became ourselves, trampled in this rut
              G#       F#       A
   Divide our stuff, divide our stuff
              G#           F#       E
   Divide our stuff, we're breaking up

[E]  [B] (2x)

               E   B    
We're breaking up (8x)

[A]  [A]  [G#]  [F] (3x)

[E] (Open)

Comments