Live - Birds Of Pray Chords & Tabs

 

Birds Of Pray Chords & Tabs

Live Chords & Tabs

Version: 1 Type: Chords 0 ratings
1 star 2 stars 3 stars 4 stars 5 stars
comments

Birds Of Pray Chords

   
Live  Birds of Prey (Album, 2003)

All songs are tuned down one half step
High to low  eb Bb Gb Db Ab eb
Chords are listed relative to this tuning


01. Heaven

 Verse  | C#m* E | Bs2 A |               * hammer on to C#m
                                              e|--4----
 Pre-Chorus  | F#5 G#5 | A5 G#5 |            B|--4h3--
              | F#5 G#5 | A5     |            G|--4h4--
                                              D|--4h4--
 Chorus  E5(7th fret) B5 C#5 A5              A|--4----
                                              E|-------
 Bridge  | E5/B D5/A | C#5/G# |



02. She

 Verse - | Ds2 Cs2 | x3
         |   Bb    |

 Chorus - | D5 C5 | G5 Bb5| D5 C5 |  G5   | several times
          |  F5   |  G5   | 1st chorus ends on D5

 Bridge - | F5    | C5    |
          |Bb5 D5 | Bb5 D5|



03. The Sanctity of Dreams

 Verse  |  B5  | G5 F#5 | x3   with palm muting
         |  G5  |   E5   |

 Chorus  | D5 A5 | B5 G5 | x3
          |  C5   |  C5   | (x2 right before bridge/outro) 

 
 Bridge/Outro  | B5 | E5 | x3
                | G5 | A5 |

 End on E5



04. Run Away

 Verse  Am G F

 Pre-Chorus - E

 Chorus  Am G F E

 Bridge - | F |    G    |
          | F | G   Am G|
          | F |    G    |

 Solo played over verse



05. Life Marches On

 Verse/Riff -
  e|---------------------------
  B|-------------3---3-3-3-3---
  G|-------------2---2-2-2-2---
  D|-------------0---0-0-0-0---
  A|-------3h(5)-0-------------
  E|-3h(5)---------------------
                       ^ scratch here for 2nd verse
 Chorus - C G D5

 Bridge - A5 C5 A5 C5 A5 C5 G5 G5



06. Like I Do

 Verse  
  G5  strum once, after several bars

  Bass
  G|------------------------------|----------------------------|
  D|------------------------------|----------------------------|
  A|---------------2-----3-3------|---------2---2---3-3--------|
  E|-5-5---5p3-5-----3-------5p3--|-3-3---3-------3-----5p3----|

 Chorus  A5 G5

 Bridge  Bb5 D5 Bb5 D5 Bb5 D5 Bb5 G5



07. Sweet Release

 Verse                                x3
  e|------------------|-----------3------|-2----------------|-2----------------|
  B|-------------0----|-------------3----|-3----------------|-3----------------|
  G|o----0------------|-----0---------0-o|-2----------------|-2---------------o|
  D|o--0---2-0h2---2p0|---0-------------o|-0----------------|-0---------------o|
  A|-2----------------|-2----------------|------------------|------------------|
  E|------------------|-------3----------|------------------|------------------|

 Pre-Chorus - | D | D  Ds4 D |

 Chorus  C A G D
[ Tab from: http://www.guitartabs.cc/tabs/l/live/birds_of_pray_crd.html ]
 Bridge - | Bm | G Em | x3
          | D  |  D   |



08. Everytime I See Your Face

 Verse  | Ds2 |  Am   | x3
         |  G  | F5 G5 |
         | Ds2 |  Am   | x3
         |  G  |   G   |

 Chorus  D5 A5 x3
          D5 G5         2nd chorus plays extra D5 G5

 Bridge  same as verse
  


09. Lighthouse

 Intro  |  G#5 F#5  |
         | G#5 F#5 B5|
         |  G#5 F#5  |
         |B5 C#5 G#5 |
 Verse 
  Guitar
   |(silent)----------|------------------|------------------|-B5-C#5-G#5-------|
  Bass
  G|------------------|------------------|------------------|------------------|
  D|------------------|------------------|------------------|------------------|
  A|------------------|---------------22-|------------------|-2---4------------|
  E|/4-444-4-2-222-22-|/4-444-4-2-222----|/4-444-4-2-222-22-|---------4--------|

 Pre-Chorus  B5 C#5

 Chorus  G#5 E5(7th fret) F#5

 Bridge - |/G#5 /G#5  C#5\ | x3
          | B5 C#5  G#5    |
          |  E5(7th fret)  | hold several bars

 Outro - |/G#5 /G#5  C#5\ | x3
         | B5 C#5  G#5    |
         | B5 C#5  G#5    | hold


10. River Town

 Verse   (2nd half of verse)
  e|----(0)---(0)-(0)-|
  B|-----3-----3---3--|
  G|---2-------0---0--|
  D|-0----------------|
  A|-------3-----3----|
  E|------------------|

 Pre-Chorus  C5 Bb5

 Chorus  D5 C5 G5 C5
  (when chorus is ending, the last C5 is left out)

 Bridge  Bb5 F5 /G5 /G5
          Bb5 F5 /G5 /G5
          Bb5 Fb5 Bb5 Fb5
          A5

 Outro  F5 G5(short bend, release)
         F5 G5(short bend, release)
         F5 G5(short bend, release)
         D



11. Out to Dry

 Verse  Em G Em G D (D|-2h3p2p0-)
         Em G Em G

 Pre-Chorus - | E5 D5 |  A5   | x3 palm muted
              | E5 D5 |  D5   | for 1st and 2nd pre-chorus
           or |  A5   |         for 3nd pre-chorus

 Chorus - | E5 C5 | G5 D5 | C5 G5 |  D5   |

 Bridge - | E5 G5 |  A5   | x3
          |  C5   |

 Outro - | A5 G5 |  D5   |



12. Bring the People Together

 Intro - A

 Verse - | A5  | several times
         |D5 A5|

 Pre-Chorus  G5 (with muting/harmonics)

 Chorus - | F5 C5 | F5 C5 |  G5   |  G5   |

 Bridge  Em A Em A Em A G5 G5 G5 G5



13. What Are We Fighting For?

 Intro | Em | D  | Em | C D|

 Verse  Em D Em C

 Chorus  | E5 C5 |  G5  |

 Bridge - | A5 C5 |  G5  | 



Please send any questions, comments or improvements to dtroberts@hotmail.com
Comments