Livaneli Z Lf - Sevgiyle Chords & Tabs

 

Sevgiyle Chords & Tabs

Livaneli Z Lf Chords & Tabs

Version: 1 Type: Tab 0 ratings
1 star 2 stars 3 stars 4 stars 5 stars
comments

Sevgiyle Tab

   
-------------------------------------------------------------------------------
SEVGIYLE
  
Artist:        Zulfu LIVANELI & Mikis THEODORAKIS
Album :        GuneS Topla Benim Ýcin
-------------------------------------------------------------------------------

Tabbed by : Goksel CANSEVEN
E-mail    : haruspex17@yahoo.com



Intro:


e|--7--7-9-7---5----5----------|--7--7-9-7---5----5----------|
B|--7------------5----5--------|--7------------5----5--------|
G|--7-------------------6------|--7-------------------6------|
D|--9---------------------7----|--9---------------------7----|
A|-----------------------------|-----------------------------|
E|-------------5----5----------|-------------5----5----------|




e|--10-9-7-9-7----7---------------2-----------------0-----------5----|
B|-------------10---8-7---5-----5---5---3-2-0-3-2-3---0-----3-5------|
G|----------------------------4---------------------------4----------|
D|------------------------2-2-----------------------2----------------|
A|--------------------------------------2-----2-------2-2------------|
E|--7------7------7--------------------------------------------------|

                 (Bm)

e|--------------0-------------------------|
B|--3-2-0-3-2-3-------3-----------3-------|
G|------------------4-----4---4-------4---|
D|--------------2-------4-------4---------|
A|--2-----2-------2---------2-------2-----|
E|----------------------------------------|




D        G     A   D

Sevgiyle baþla bugüne
[ Tab from: http://www.guitartabs.cc/tabs/l/livaneli_z_lf/sevgiyle_tab.html ]
D        G     A   D

Coþkuyla baþla bugüne

   Em          D 

Þarkýlarla, türkülerle

 Em          D

Uzat bana, ellerini

  Em    A      D 

Doðan günün þenliðine

    Em   G        F#    Bm (palm muted)

Sen de katýl, sen de



         Bm                      F# 

Yalnýzlýktý yavrum yokeden seni

Em  -  F# -  Bm    D-Em-Bm  D-Bm

Dostluklar yaratýr yeniden  seni    (x2)


---------------------------------------
          .::Repeat Intro::.
---------------------------------------


D        G     A   D

Tutkuyla baþla bugüne

D      G     A   D

Umutla baþla bugüne

 Em         D 

Emeðinle, direncinle

 Em         D 

Uzat bana ellerini

  Em    A      D 

Doðan günün þenliðine

    Em   G        F#    Bm (palm muted)

Sen de katýl, sen de

---------------------------------------

         Bm                      F# 

Yalnýzlýktý yavrum yokeden seni

Em  -  F# -  Bm    D-Em-Bm  D-Bm

Dostluklar yaratýr yeniden  seni    (x2)


---------------------------------------
          .::Repeat Intro::.
---------------------------------------

END



Comments