Little Richard - Lucille Chords & Tabs

 

Lucille Chords & Tabs

Little Richard Chords & Tabs

Version: 1 Type: Bass Tab 0 ratings
1 star 2 stars 3 stars 4 stars 5 stars
comments

Lucille Bass Tab

   
From: josh_cavan@hotmail.com
performed by: Little Richard
Written by: Albert Collins, Richard Penniman

                          Lucille
                       Little Richard

I tabbed the bass because its a great backbeat to any
blues band and it lead the way to songs like "pretty woman"
and "day tripper"
(Take note: this song is in C# but I tabbed it in E)

   E  
E:-0-0-4-----------0-0-4-----------0-0-4----------0-0-4------------
A:-------2---------------2---------------2---------------2---------
D:---------0-0-2-0---------0-0-2-0---------0-0-2-0---------0-0-2-0-
G:-----------------------------------------------------------------
[ Tab from: http://www.guitartabs.cc/tabs/l/little_richard/lucille_btab.html ]
   A                              E                E7
E:---------------------------------0-0-4-----------0-0-4-----------
A:-0-0-4-----------0-0-4-----------------2---------------2---------
D:-------2---------------2-----------------0-0-2-0---------0-0-2-0-
G:---------0-0-2-0---------0-0-2-0---------------------------------

   B               A               E               B
E:---------------------------------0-0-4---------------------------
A:-2-2-------------0-0-4-----------------2-----------2-2-2-2-2-2-2-
D:-----1-4---------------2-----------------0-0-2-0-----------------
G:---------2-2-4-2---------0-0-2-0---------------------------------


if you have any questions email: josh_cavan@hotmail.com
Comments