Little Man Tate - Sexy In Latin Chords & Tabs

 

Sexy In Latin Chords & Tabs

Little Man Tate Chords & Tabs

Version: 1 Type: Tab

Sexy In Latin Tab

www.littlemantate.co.uk

Sexy in Latin

Capo 3rd Fret


Intro

-0-0-0-0-0-0--2-2--|
-2-2-2-2-2-2--3-3--|
-2-2-2-2-2-2--0-0--|
-2-2-2-2-2-2--0-0--|
-0-0-0-0-0-0--- ---|
-0-0-0-0-0-0-------| Repeat a few times

Verse

-0--------4-------5--------7-----------5------4-----2--|
-2--------6-------7--------10----------7------5-----3--|
-2--------6-------7--------10----------7------6-----4--|
-2--------6-------7--------10----------7------6-----4--|
-0--------4-------5--------7------------5------4-----2-|
-0--------4-------5--------7------------5------4-----2-|

Next Bit
[ Tab from: http://www.guitartabs.cc/tabs/l/little_man_tate/sexy_in_latin_tab.html ]
-----2---------2---------4---------4-----3-----2--|
---3--3------3--3-----5---5-----5-----4-----3-----|
-4-------4-4------4-6-------6-6-----5-----4-------|
--------------------------------------------------|
--------------------------------------------------|
--------------------------------------------------|

Solo

-------------------5-5-5-5-5-5-5----------5-5-5-5----------------------------|
----------------7--5-5-5-5-7-5-5--0-------5-9-7-5----------------------------|
-----2--------------------------------/6------------4-4-2-2--2h3h4-----------|
-/4-----4-4/6--------------------------------------------------------2h3h4---|
-----------------------------------------------------------------------------|
-----------------------------------------------------------------------------|

------------------------------------------------------------|
------------------------------------------------------------|
---2---------------2----------------2---------------2-------|
-----4p2-------------4p2-------------4p2--------------------|
-0--------2h3--0----------2h3--0---------2h3-0--------------|
--------------------------------------------------------3-4-|