Little Feat - Trouble Chords & Tabs

 

Trouble Chords & Tabs

Little Feat Chords & Tabs

Version: 1 Type: Tab 0 ratings
1 star 2 stars 3 stars 4 stars 5 stars
comments

Trouble Tab

   
-------------------------------------------------------------------------------
			     TROUBLE - Little Feat - Sailin' Shoes
-------------------------------------------------------------------------------
Tabbed by: Ian Ferguson
Tuning:DGDGBD (Open G)


          INTRO

e|-5-----5--5----------------------------------------------------------------|
B|----3-----------------5-----5---3\1--0--0h1--2--3-----3----3---------------|
G|-------------0--4--5--5-----5---0----0--0----0--2-----2h4--2---------------|
D|------------------------------------------------0--0--0----0---------------|
A|-0--------0-----4--5-----5------4\2--0--0h2--3-----------------------------|
E|----0----------------------------------------------------------------------|

                                                   You yelled

e|-5-----5-------------------------------------------------------------------|
B|----3------3-----------5-----5---3\1--0--1---------------------------------|
G|--------------0--4--5--5-----5---0----0--2---------------------------------|
D|-----------------------------------------0---------------------------------|
A|-0-----0------0--4--5-----5------4\2--0------------------------------------|
E|----0---------------------------------------0------------------------------|



    hey when your car wouldn't start so you got real nervous and started to

e|-/12------------/12-----------------------/12------------------/12---------|
B|-/12------------/12-----------------------/12------------------/12---------|
G|--0--------------0-------------------------0--------------------0----------|
D|--/12-----------/12-----------------------/12------------------/12---------|
A|-------0--------------0------------------------0---------------------------|
E|---------------------------------------------------------------------------|


   eat     your heart out. Now you're so fat your shoes don't fit on your feet
e|--------------7--------------7------------------------------7--------------|
B|-12\10---8----7--------------7------------------------------7--------------|
G|-0-------0----7--------------7------------------------------7--------------|
D|-12\10---9-----------------------------------------------------------------|
A|--------------7--------------7------------------------------7--------------|
E|--------------------0-------------------0--------------------------------0-|




you got trouble and it's tailor made well mama lay your head down in the shade

e|----5-----5-------------------------------------------------0------------7-|
B|----3-----3---------------------5--5----3\1--0---0h1-----------------3-----|
G|----4-----4----------------5-------5----0----0---0-------------------2--/7-|
D|------------------------------------------------------------0--------0-----|
A|-0-----0------0-4-0----/5----5-----5----4\2--0---0h2-----------------------|
E|---------------------------------------------------------------------------|


   'cos your eyes are tired and your feet are too, and you wish the world

e|---------------------------------------------------------------------------|
B|------------0----------------------5---------------------0--------5--------|
G|------------0----------------------5---------------------0--------5--------|
D|------------0----------------------5---------------------0--------5--------|
A|------------0----------------------5---------------------0--------5--------|
E|---------------------------------------------------------------------------|


  was as tired as you.  Well I'll write a letter and I'll send it away

e|---------------------------------------------------------------------------|
B|-------5--------7---------------0-----------------------5------------------|
G|-------6--------7-0--2/4-2------0-----------------------5------------------|
D|-------5--------7-0--0---0------0-----------------------5------------------|
A|-------6--------7-0--2/4-2------0-----------------------5------------------|
E|---------------------------------------------------------------------------|


and put all the trouble in it you had today

e|----------------------------------------5---5--------------------------0---|
B|-------0----------------5----------7----3---3--------------5-5-3\1-0---1---|
G|-------0----------------5----------7----4---4----------5-----5-0---0---2---|
D|-------0----------------5----------7-----------------------------------0---|
A|-------0----------------5----------7-0----0---0-4-0-/5---5---5-4\2-0-------|
E|---------------------------------------------------------------------------|


  Oh your telephone rang and you were not home

e|--------9---------8--------7-----------------------------------------------|
B|--------8---------7--------7-----------------------------------------------|
G|--------7---------6--------7-----------------------------------------------|
D|--------9---------8--------7-----------------------------------------------|
A|---------------------------------------------------------------------------|
E|----------------------------------------0----------------------------------|

   You forgot about this and you forgot about that
[ Tab from: http://www.guitartabs.cc/tabs/l/little_feat/trouble_tab.html ]
e|-----0------------3--------------------------------------------------------|
B|-----0------------0--------------5-----------------------------------------|
G|-----0------------0--------------5-----------------------------------------|
D|---------------------------------5-----------------------------------------|
A|-----0------------4--------------5-----------------------------------------|
E|---------------------------------------------------------------------------|


   'cos you gotta get back to what you're doing
e|-----------------5---------------------------------------------------------|
B|-----------------3--3--------3-----3---3-----------------------------------|
G|--5-------4--------------4---2-----2h4-2-----------------------------------|
D|---------------------------5-0-0---0---0-----------------------------------|
A|---------------------------------------------------------------------------|
E|---------------------------------------------------------------------------|

   Goodbye click that so and so you're an island and on your own and

e|-0-------2------------------0------------0-----0------0----0--0----0-------|
B|-0-------0------------------0------------1-----1------1----0--0----0-------|
G|-0-------0----------2/4-2---0------------2-----2------2----0--0----0-------|
D|--------------------0---0----------------0--------0------------------------|
A|-0------------------2/4-2-0--------------------------------0----0----------|
E|---------2-----------------------------------------------------------------|



    you yelled hey when the snow blew up upset  

e|-/12------------/12-----------------------/12------------------------------|
B|-/12------------/12-----------------------/12------------------------------|
G|--0--------------0-------------------------0-------------------------------|
D|-/12------------/12-----------------------/12------------------------------|
A|-------0--------------0------------------------0---------------------------|
E|---------------------------------------------------------------------------|


         why    yeah           footprints on the ceiling are almost gone
e|--------------7--------------7-----------------7---------------------------|
B|-------12-----7--------------7-----------------7---------------------------|
G|-------0------7--------------7-----------------7---------------------------|
D|-------12------------------------------------------------------------------|
A|--------------7--------------7-----------------7---------------------------|
E|--------------------0-------------------0-------------------0--------------|



   and you're wonderin' why oh mama lay your head down don't you cry

e|----5----3-----3--------------------------------0---------7----------------|
B|----3----3-------3-----------5--5--3\1--0--0h1-----3-----------------------|
G|----4----4---------------5------5--0----0--0-------2---/7------------------|
D|------------------------------------------------0--0-----------------------|
A|-0----0-----0---------/5---5----5--4\2--0--0h2-----------------------------|
E|---------------------------------------------------------------------------|

   'cos your eyes are tired and your feet are too, and you wish the world
e|---------------------------------------------------------------------------|
B|------------0----------------------5---------------------0--------5--------|
G|------------0----------------------5---------------------0--------5--------|
D|------------0----------------------5---------------------0--------5--------|
A|------------0----------------------5---------------------0--------5--------|
E|---------------------------------------------------------------------------|

  was as tired as you.  So I'll write a letter and send it away

e|---------------------------------------------------------------------------|
B|-------5--------7-------------0-----------------5--------------------------|
G|-------6--------7-0--2/4-2----0-----------------5--------------------------|
D|-------5--------7-0--0---0----0-----------------5--------------------------|
A|-------6--------7-0--2/4-2----0-----------------5--------------------------|
E|---------------------------------------------------------------------------|


and put all the troubles in it you had today

e|----------------------------------------5---5--------------------------0---|
B|-------0----------------5----------7----3---3--------------5-5-3\1-0-0---1-|
G|-------0----------------5----------7----4---4----------5-----5-0---0-----2-|
D|-------0----------------5----------7---------------------------------0-0-0-|
A|-------0----------------5----------7-0----0---0-4-0-/5---5---5-4\2-0-0-----|
E|---------------------------------------------------------------------------|




                    LYRICS

You yelled hey when your car wouldn't start 
so you got real nervous and started to eat your heart out. 
Now you're so fat your shoes don't fit on your feet.

You got trouble and it's tailor made 
well mama lay your head down in the shade
'cos your eyes are tired and your feet are too, 
and you wish the world was as tired as you.  

Well I'll write a letter and I'll send it away
and put all the trouble in it you had today.

Oh your telephone rang and you were not home.
You forgot about this and you forgot about that
'cos you gotta get back to what you're doing.
Goodbye click that so and so you're an island and on your own.
 
And you yelled hey when the snow blew up,
upset, why yeah, footprints on the ceiling are almost gone,
and you're wonderin' why,
oh mama lay your head down don't you cry.

'cos your eyes are tired and your feet are too, 
and you wish the world was as tired as you.  

So I'll write a letter and send it away
and put all the troubles in it you had today.


| /  slide up
| \  slide down
| h  hammer-on
| p  pull-off
| ~  vibrato
| +  harmonic
| x  Mute note
===============================================================================
Comments