Litfiba - Regina Di Cuori Chords & Tabs

 

Regina Di Cuori Chords & Tabs

Litfiba Chords & Tabs

Version: 1 Type: Bass Tab 0 ratings
1 star 2 stars 3 stars 4 stars 5 stars
comments

Regina Di Cuori Bass Tab

LITFIBA - REGINA DI CUORI

BASS TAB

Intro/Chorus:
G|-----------------|-----------------|
D|-----------------|-----------------|
A|---------0-0-0-0-|-3-3-3---5-5-5-5-|
E|-0-0-0-----------|-----------------|
[ Tab from: http://www.guitartabs.cc/tabs/l/litfiba/regina_di_cuori_btab.html ]
Verse:
G|---------------------|
D|---------------------|
A|---------------------|x 3 poi:
E|-0----0----2-2-2-2---|

G|---------------------|
D|---------------------|
A|-5----5----52-2-2---|
E|---------------------|


Per commenti o correzioni la mia mail รจ fleafly_@libero.it

Comments