Litfiba - Eroe Nel Vento Chords & Tabs

 

Eroe Nel Vento Chords & Tabs

Litfiba Chords & Tabs

Version: 1 Type: Tab 0 ratings
1 star 2 stars 3 stars 4 stars 5 stars
comments

Eroe Nel Vento Tab

*** Litfiba - Eroe nel Vento ***
Tabs by > alias Steve House.
Dedicated to Roberta Vajna de Pava.
suggestions to stefano.casati@tiscali.it


Legend: H: harmonic.
        p.m.: palm mute.

riff 1 - heavy distorsion:
e----------------------------------------------------------7---------7 A.H.-----------|
B-------------------------------------------------------------------------------------|
G----12-12-12-14-14-14-14-12-12-12-12-14-14-14-14-------------------------------------|
D----12-12-12-12-12-12-12-12-12-12-12-12-12-12-12--9-9-9-9---9-9-9-9------------------|
A----10-10-10-10-10-10-10-10-10-10-10-10-10-10-10--9-9-9-9---9-9-9-9------------------|
E--------------------------------------------------7-7-7-7---7-7-7-7------------------|

riff 2:
e----------------------------------------------------------------------------------------|
B----------------------------------------------------------------------------------------|
G-12-12-12-12-14-14-14-14-12-12-12-12-12-12-14-14-14-14----------------------------------|
D-12-12-12-12-12-12-12-12-12-12-12-12-12-12-12-12-12-12--9-------9-------9-------9-------|
A-10-10-10-10-10-10-10-10-10-10-10-10-10-10-10-10-10-10----9---9---9---9---9---9---9---9-|
E------------------------------------------------------------7-------7-------7-------7---|

repeat riff 1  (...qui...ora)

riff 3:
e-------------------------------|
B-------------------------------|
G---12-12-12-12-14-14-14-14-----|
D---12-12-12-12-12-12-12-12--9--|
A---10-10-10-10-10-10-10-10--9--|
E----------------------------7--|
		 slow here

phrase 1 (repeat 5 times):
e---------------------------------------------------------|
B------------------0---------------2-3---4-------2-3---4--|
G------2-0---0-------0---0-------4-----4-------4-----4----|
D----0-----0-----0-----0-------4-------------4------------|
A----------------------------2-------------2--------------|
E--3-----------3------------------------------------------|
                                  gli scatti ai nervi e ai sensi che
   le ombre dei sogni scuotono
                                  e spazza il vento e porta via
                                  il bambino che gioca con il mare

riff 1 (instead of doing the A.H. play the E string down from the 7th fret to the 1st)
       (E ------7/1---|)

riff 2
[ Tab from: http://www.guitartabs.cc/tabs/l/litfiba/eroe_nel_vento_tab.html ]
riff 4:
e----------------------------------------------------------------------------------------|
B----------------------------------------------------------------------------------------|
G--12-12-12-12-14-14-14-14-12-12-12-12-14-14-14-14---------------------------------------|
D--12-12-12-12-12-12-12-12-12-12-12-12-12-12-12-12------------------9-----------------9--|
A--10-10-10-10-10-10-10-10-10-10-10-10-10-10-10-10--9-9-9-9-9-9-9-9-9-9-9-9-9-9-9-9-9-9--|
E---------------------------------------------------7-7-7-7-7-7-7-7-7-7-7-7-7-7-7-7-7-7--|
                                                   pm..............   pm..............

             non sarò eroe,                          non sarei stato mai
             tradire fuggire,                        è il ricordo che resterà


riff 3 (...eroe...nel vento)


riff 5 (repeat twice)
e----------------------------------------------------------------------------------------|
B----------------------------------------------------------------------------------------|
G----------------------------------------------------------------------------------------|
D------------------------2-2-2-2---------------------------------------------------------|
A---5-5-5-5-5-5-5-5-5-5--2-2-2-2--5-5-5--7-7-7--4-4-4-4-4-4-4-4-4-4-4-4-4-4-4------------|
E---3-3-3-3-3-3-3-3-3-3--0-0-0-0--3-3-3--5-5-5--2-2-2-2-2-2-2-2-2-2-2-2-2-2-2------------|  
  pm.........................................................................

    è   la   noia   che   scava   dentro   me,               eroe nel vento
    

e----------------------------------------------------------------------------------------|
B----------------------------------------------------------------------------------------|
G----------------------------------------------------------------------------------------|
D------------------------2-2-2-2----------------------9-9--------------------------------|
A---5-5-5-5-5-5-5-5-5-5--2-2-2-2--5-5-5--7-7-7--------9-9--------------------------------|
E---3-3-3-3-3-3-3-3-3-3--0-0-0-0--3-3-3--5-5-5--------7-7--------------------------------|  
  pm...........................................
   
    solo    noia   che   scava   dentro    me,  eroe      nel vento


riff 1
riff 2
riff 3

phrase 1: guerre di eroi
          tradite senza pietà
          e svanite nei secoli.

                
Comments