Lit - Zip Lock Chords & Tabs

 

Zip Lock Chords & Tabs

Lit Chords & Tabs

Version: 3 Type: Tab 0 ratings
1 star 2 stars 3 stars 4 stars 5 stars
comments

Zip Lock Tab

Hey Dude. Sorry But My Computer Is 5 Years Old So It Types Up Differnt. Heres 
   The Lit Ziplock Solo! 

   Band: Lit 
   Album: A Place In The Sun 
   Song: Ziplock ( The Solo ) 
   Submitted By: Sam ( BbySpamuel@aol.com ) 

   Ok The Solo For Ziplock Is Really Easy. You Don't Need A Seven String Like 
   Every Other Band Or A Signature Tuning Like Ever Other Guitarist With An 
   Ibanez Deal. Just A Six String Guitar Tuned Regular. Ok So Here Goes! 

   The Begining Solo Riff ( The High Pitched Sound In The Begining ) 

   e|--18--------- - 
   b|------14-14-14 
   G|------14-14-14 
   D|--------------- 
   B|--------------- 
   E|--------------- 

   ( Just Repeat About 8 Or 9 Times ) 
[ Tab from: http://www.guitartabs.cc/tabs/l/lit/zip_lock_tab_ver_3.html ]
   Ok Now For The First Part Of The Solo 
   e|-----------------------------------------------| 
   b|-----------------------------------------------| 
   G|-x-x-x-x-11-11-12-12-11-11-10-10-8-8-6-6----| 
   D|-x-x-x-x- x-- x--x-- x--x-- x--x-- x -x-x- x-x----| 
   B|-x-x-x-x- 9-- 9-10-10--9--9--8-- 8- 6-6-4-4--- | 
   E|-----------------------------------------------| 

   Now For The Second Part Of Te Solo: 

   e|-----------------------------------------------| 
   b|-----------------------------------------------| 
   G|-15-15-11-11-12-12-11-11-10-10-8-8--6-6-----| 
   D|- x-- x--x-- x--x-- x--x-- x--x-- x -x-x--x-x-----| 
   B|-13-13- 9-- 9-10-10--9--9--8-- 8- 6-6- 4-4----| 
   E|-----------------------------------------------| 

   Yeah I Know It Might Be Confusing Just A Bit But I Ran Out Of Room. Just 
   Remember The Second Part Of The Solo Begins As The First One Ends. Ok Well 
   I'm Only 14 And I Am Sure This Is Correct. I Can Help Out With Some Other 
   Songs Too. Like I Have A Limp Bizkit Three Dollar Bill Yall$ Guitar Book And 
   Stuff. Well Keep On Practicing Guitarists! 
   -Sam 
Comments