Lit - Perfect One Chords & Tabs

 

Perfect One Chords & Tabs

Lit Chords & Tabs

Version: 1 Type: Tab 0 ratings
1 star 2 stars 3 stars 4 stars 5 stars
comments

Perfect One Tab

#----------------------------------PLEASE NOTE---------------------------------#
#This file is the author's own work and represents their interpretation of the #
#song. You may only use this file for private study, scholarship, or research. #
#------------------------------------------------------------------------------##

"perfect one"___________________________________________________________________________ ____________________intro+verses:_______________________________________________

-----5-5-5-5-5-5-5-5-5-----3-3-3-3-3-3-3-3-3--------------------------------
-----5-5-5-5-5-5-5-5-5-----3-3-3-3-3-3-3-3-3--------------------------------
-----6-6-6-6-6-6-6-6-6-----4-4-4-4-4-4-4-4-4--------------------------------
--7------------------------5------------------------------------------------------
--7------------------------5------------------------------------------------------
--5------------------------3------------------------------------------------------

_______________________________________________________________________________________ ___________________pre-chorus:____________________________________________________
[ Tab from: http://www.guitartabs.cc/tabs/l/lit/perfect_one_tab.html ]
---------------------------------------------------------------------------------
---------------------------------------------------------------------------------
---------------------------------------------------------------------------------
--7--5--8-8-8-8--6-6-6-6------------------------------------------------------
--7--5--8-8-8-8--6-6-6-6------------------------------------------------------
--5--3--6-6-6-6--4-4-4-4------------------------------------------------------

_______________________________________________________________________________________ ___________________chorus:______________________________________________________

-----5-5-5-5-5-5-5-5-5-----3-3-3-3-3-3-3-3-3-----6-6-6-6-6-6-6-6-6-----4-4-4-4-4-4-4-4-4--
-----5-5-5-5-5-5-5-5-5-----3-3-3-3-3-3-3-3-3-----6-6-6-6-6-6-6-6-6-----4-4-4-4-4-4-4-4-4--
-----6-6-6-6-6-6-6-6-6-----4-4-4-4-4-4-4-4-4-----7-7-7-7-7-7-7-7-7-----5-5-5-5-5-5-5-5-5--
--7------------------------5-----------------------8------------------------6------------------------
--7------------------------5-----------------------8------------------------6------------------------
--5------------------------3-----------------------6------------------------4------------------------
Comments