Lit - No Big Thing Chords & Tabs

 

No Big Thing Chords & Tabs

Lit Chords & Tabs

Version: 2 Type: Tab 0 ratings
1 star 2 stars 3 stars 4 stars 5 stars
comments

No Big Thing Tab

#----------------------------------PLEASE NOTE---------------------------------#
#This file is the author's own work and represents their interpretation of the #
#song. You may only use this file for private study, scholarship, or research. #
#------------------------------------------------------------------------------##

"no big thing"______________________________________________________________________ _________________intro:____________________________________________________

--------------------------------------------------------------------------------------
--------------------------------------------------------------------------------------
--------------------------------------------------------------------------------------
--7-7-7-7-7-7-7-7--6-6-6-6-6-6-6--3-3-3-3-3-3-3-3-3-3-3-3--------------------
--7-7-7-7-7-7-7-7--6-6-6-6-6-6-6--3-3-3-3-3-3-3-3-3-3-3-3--------------------
--5-5-5-5-5-5-5-5--4-4-4-4-4-4-4--1-1-1-1-1-1-1-1-1-1-1-1--------------------

____________________________________________________________________________________ _________________verses: (palm mute the powerchord 5)_______________________________
[ Tab from: http://www.guitartabs.cc/tabs/l/lit/no_big_thing_tab_ver_2.html ]
---------------------------------------------------------------------------------------------------------
---------------------------------------------------------------------------------------------------------
---------------------------------------------------------------------------------------------------------
--7-7-7-7-7-7-7-7-7-7-7-7-7-7-7-7-7-7-7-7---7-7--6-6-6--5-5--4-4-4--7-7--6-6-6--5-5--4-4-4--
--7-7-7-7-7-7-7-7-7-7-7-7-7-7-7-7-7-7-7-7---7-7--6-6-6--5-5--4-4-4--7-7--6-6-6--5-5--4-4-4--
--5-5-5-5-5-5-5-5-5-5-5-5-5-5-5-5-5-5-5-5---5-5--4-4-4--3-3--2-2-2--5-5--4-4-4--3-3--2-2-2--

____________________________________________________________________________________ _________________chorus:____________________________________________________________

-----------------------------------------------------------------------------
-----------------------------------------------------------------------------
-----------------------------------------------------------------------------
--7--6--5-5-5-5-5-5--4-4-4-4-4-4----------------------------------------
--7--6--5-5-5-5-5-5--4-4-4-4-4-4----------------------------------------
--5--4--3-3-3-3-3-3--2-2-2-2-2-2----------------------------------------

Comments