Lit - No Big Thing Chords & Tabs

 

No Big Thing Chords & Tabs

Lit Chords & Tabs

Version: 1 Type: Tab 0 ratings
1 star 2 stars 3 stars 4 stars 5 stars
comments

No Big Thing Tab

   
#----------------------------------PLEASE NOTE--------------------------------#
#This file is the author's own work and represents their interpretation of the#
#song. You may only use this file for private study, scholarship, or research.#
#-----------------------------------------------------------------------------#
#-- File created with Instab - http://www.pconline.com/~smcarey/instab.html --#
#-----------------------------------------------------------------------------#

Author/Artist: Lit
Title: No Big Thing
Album: Tripping the light fantastic
Transcribed by: Chris
Email: Nobo_2000@hotmail.com

Tune down Half a step (low to high, Eb Ab Db Gb Bb Eb) 
pm palm mute
\  slide
Intro
|----------------------------------------------------------------------------
|----------------------------------------------------------------------------
|----------------------------------------------------------------------------
|-10-10-10-10-10-10-5-5-5-5-5-5-3-3-3-3-3-3-3-3-3-3-3-3----------------------
|-10-10-10-10-10-10-5-5-5-5-5-3-3-3-3-3-3-3-3-3-3-3-3-1----------------------
|-8--8--8--8--8--8--3-3-3-3-3-3-1-1-1-1-1-1-1-1-1-1-1-1----------------------
                                                                              

|----------------------------------------------------------------------------
|----------------------------------------------------------------------------
|----------------------------------------------------------------------------
|-10-10-10-10-10-10-10-10-10-10-10-10-10-10-10-10-10\9-----------------------
|-10-10-10-10-10-10-10-10-10-10-10-10-10-10-10-10-10\9-----------------------
|-8--8--8--8--8--8--8--8--8--8--8--8--8--8--8--8--8-\7-----------------------
                                                                              

|----------------------------------------------------------------------------
|----------------------------------------------------------------------------
|----------------------------------------------------------------------------
|-10-10-5-5-3-3-3-3-3-3-3-3-3-3-3-3-3-3-3-3-3-3------------------------------
|-10-10-5-5-3-3-3-3-3-3-3-3-3-3-3-3-3-3-3-3-3-3------------------------------
|-8--8--3-3-1-1-1-1-1-1-1-1-1-1-1-1-1-1-1-1-1-1------------------------------
                                                                              
[ Tab from: http://www.guitartabs.cc/tabs/l/lit/no_big_thing_tab.html ]
|----------------------------------------------------------------------------
|----------------------------------------------------------------------------
|----------------------------------------------------------------------------
|----------------------------------------------------------------------------
|----------------------------------------------------------------------------
|-0-3-6-5-0-3-6-5------------------------------------------------------------
                                                                              
Riff 1
|----------------------------------------------------------------------------
|----------------------------------------------------------------------------
|----------------------------------------------------------------------------
|-2-5-8-7--2-5-8-7-----------------------------------------------------------
|-2-5-8-7--2-5-8-7-----------------------------------------------------------
|-0-3-6-5--0-3-6-5-----------------------------------------------------------
                                                                              
Riff 2
|----------------------------------------------------------------------------
|----------------------------------------------------------------------------
|----------------------------------------------------------------------------
|-5pm-------Repeat lots of times over verse ---------------------------------
|-5pm------------------------------------------------------------------------
|-3pm------------------------------------------------------------------------

Riff 3                                                                             
|----------------------------------------------------------------------------
|----------------------------------------------------------------------------
|----------------------------------------------------------------------------
|-10-10-5-5-3-3-3-3-3-3-3-3-3-3-3-3------------------------------------------
|-10-10-5-5-3-3-3-3-3-3-3-3-3-3-3-3------------------------------------------
|-8--8--3-3-1-1-1-1-1-1-1-1-1-1-1-1------------------------------------------

Solo
|----------------------------------------------------------------------------
|----------------------------------------------------------------------------
|----------------------------------------------------------------------------
|---17-----17------------17-----17---19-17-----------------------------------
|-15--15-14--14-12-10--15--15-14--14-----------------------------------------
|----------------------------------------------------------------------------
This is only the first bit of the solo as i can't work out the rest.

Order:
Intro

Riff1
Riff2
If you just want to be my friend why do you keep callig me then?
Riff1
Riff2
It's better that i never see you, will i ever see you again?
Riff1

Riff3
It's all right my heart isn't broken
Riff3
It's all right i'm feeling no pain
Riff3
It's all right i'm not going crazy
Riff3
It's all right i'ts no big thing

Riff1
Riff2
If you just want to be my friend why do you keep callig me then? Yeah Yeah
Riff1
Riff2
It's better that i never see you, will i ever see you again?
Riff1

Riff3
It's all right my car isn't broken
Riff3
It's all right i'm feeling no pain
Riff3
It's all right i'm not going crazy
Riff3
It's all right i'ts no big thing

solo

Riff3
It's all right my car isn't broken
Riff3
It's all right i'm feeling no pain
Riff3
It's all right i'm not going crazy
Riff3
It's all right i'ts no big thing

If any one can work out the rest of the solo please email me thanks
  
Comments