Lit - No Big Thing Chords & Tabs

 

No Big Thing Chords & Tabs

Lit Chords & Tabs

Version: 3 Type: Bass Tab 0 ratings
1 star 2 stars 3 stars 4 stars 5 stars
comments

No Big Thing Bass Tab

Song:           No Big Thing
Artist:     Lit
Album:      A place in the Sun
Submitted by:       Bassplayerboo@aol.com

Intro
G|-----|----------------------------------------------
D|-----|----------------------------------------------
A|-----|-3-3-3-3--------------------------------------
E|-1---|---------3-3-3-3-0h1-1-1--1-1-1-0h1-1-1--1-1-1
  play till 
  guitar changes
[ Tab from: http://www.guitartabs.cc/tabs/l/lit/no_big_thing_btab_ver_3.html ]
Verse
G|--------------------------------------------
D|--------------------------------------------
A|-------------------------------1-1-0-0-0-0--
E|-3-3-3-3-3-3-3-3---0-0-3-3-3-3--------------

Chorus
G|-------------------------------------|
D|-------------------------------------|
A|-3-----------------------------------|
E|----3--0h1-1-1--1-1-1-0h1-1-1--1-1-1-|

Ending
G------
D------
A---3--
E-3----
Comments