Lit - My Own Worst Enemy Chords & Tabs

 

My Own Worst Enemy Chords & Tabs

Lit Chords & Tabs

Version: 8 Type: Tab 0 ratings
1 star 2 stars 3 stars 4 stars 5 stars
comments

My Own Worst Enemy Tab

Tabed By: Paul Cody Robinson. here's the whole thing but the
solo; it is played in drop D. For any questions or comments
E-mail me at cr05@yosmite.net.


E|--------------------------------|
B|--------------------------------|
G|-8-99999999-8-999999999---------|
D|-x-xxxxxxxx-x-xxxxxxxxx--9-7----|
A|-6s77777777-6s777777777--9-7----|
D|-------------------------9-7v---|


E|--------------------------------|
B|--------------------------------|
G|-8-99999999-8-999999999---------|
D|-x-xxxxxxxx-x-xxxxxxxxx--9-7----|
A|-6S77777777-6s777777777--9-7----|
D|-------------------------9-7v---|

[ Tab from: http://www.guitartabs.cc/tabs/l/lit/my_own_worst_enemy_tab_ver_8.html ]
E|--------------------------------|
B|--------------------------------|
G|--------------------------------|
D|-77--777--777--77-20------------|
A|-77--777--777--77-20------------|
D|-77--777--777--77-20------------|


E|--------------------------------|
B|--------------------------------|
G|--------------------------------|
D|-77--777--777-77-20-------------|
A|-77--777--777-77-20-------------|
D|-77--777--777-77-20-------------|

       PLEASE TELL ME WHY
E|--------------------------------|
B|--------------------------------|
G|--------------------------------|
D|-444444444-777777777-999999999--|
A|-444444444-777777777-999999999--|
D|-444444444-777777777-999999999--|


E|--------------------------------|
B|--------------------------------|
G|--------------------------------|
D|-11-11-11-11-11-11-11-11-11-----|
A|-11-11-11-11-11-11-11-11-11-----|
D|-11-11-11-11-11-11-11-11-11-----|


Well there it is, hope you like it.
Comments