Lit - My Own Worst Enemy Chords & Tabs

 

My Own Worst Enemy Chords & Tabs

Lit Chords & Tabs

Version: 5 Type: Tab 0 ratings
1 star 2 stars 3 stars 4 stars 5 stars
comments

My Own Worst Enemy Tab

Lit
My own worst enemy
Tabbed by:Kevan Sinanan

riff1
E----------------------------------------|
B----------------------------------------|
G----------------------------------------|
D----------------------------9---7-------|
A--6-777777777----6-777777---9---7-------|This is played twice
E----------------------------7---5-------|then band comes in.

riff2 Then  PM   PM   PM                    PM-palm mute
E----------------------------------------|
B----------------------------------------|
G----------------------------------------|
D---2----2----2----9--7------------------|
A---2----2----2----9--7------------------|
E---0----0----0----7--5------------------|
This part is played for the verse as well


riff3 Chorus
 "Please tell me why..."
E----------------------------------------|
B----------------------------------------|
G----------------------------------------|
D-2----4----7----9-----------------------|
A-2----4----7----9-----------------------|
E-0----2----5----7-----------------------|x2
[ Tab from: http://www.guitartabs.cc/tabs/l/lit/my_own_worst_enemy_tab_ver_5.html ]
solo
E----------------------------------------|
B----------------------------------------|
G----------------------------------------|
D----------------------------------------|
A-6-777777--6-777777-9-9~----------------|
E----------------------------------------|x2

E----------------------------------------|
B----------------------------------------|
G----------------------------------------|
D----66666666--66666666-7-7~-------------|
A--9----------9--------------------------|
E----------------------------------------| 

E----------------------------------------------------|
B----------------------------------------------------|
G----------------------------------------------------|
D----999-11-11-11-999-777-666-777-666----------------|
A--------------------------------------999---~7------|
E----------------------------------------------------|
After this is played the above riffs are played.

NOTE
The timing isn't exact so you have to have a fair
idea when the notes change.By the way this is not a difficult
song.

The tabbing was done by my interpretation of this song.
Tabbed by:Kevan Sinanan (chineerat@music.com),ICQ# 47735705
Comments