Lit - My Own Worst Enemy Chords & Tabs

 

My Own Worst Enemy Chords & Tabs

Lit Chords & Tabs

Version: 10 Type: Tab 0 ratings
1 star 2 stars 3 stars 4 stars 5 stars
comments

My Own Worst Enemy Tab

   
Lit
My own Worst enemy
Tuning: Standard
Email: eved05@stdavids.co.za
Tabbed by ToRK

x = string not played

Chords used:
A	577xxx
D	x577xx
Eii	x799xx
B	799xxx
E	022xxx
=======================================================================
I have transcribed two intro’s, you can use either one.

Intro 2X
e ----------------------------
B ----------------------------
G ----------------------------
D -----------------------9-7--
A –6h7-77777777-6h7-7777-9-7--
E -----------------------7-5--

Alternative Intro 2X
e -------------------------------
B -------------------------------
G ------------------------4-2----
D –1h2-222222222-1h2-2222-4-2----
A ------------------------2-0----
E -------------------------------

Verse:
e --------------------------------
B --------------------------------
G ----------4-2------------4-6----
D –22-22-22-4-2-2-22-22-22-4-6-2--
A -22-22-22-2-0-2-22-22-22-2-4-2--
E -00-00-00-----0-00-00-00-----0--
[ Tab from: http://www.guitartabs.cc/tabs/l/lit/my_own_worst_enemy_tab_ver_10.html ]
Chorus:
Eii
Please tell me why
             A           
The dog was in the front yard 
                          D
And I’m sleeping with my clothes on
 A                    B     A
Came in through the window last night.

Solo:
e -------------------------------------------------------
B -------------------------------------------------------
G -------------------------------------------------------
D -1h2-22222222-1h2-2222-44--1h2-22222222-1h2-2222-44----
A -------------------------------------------------------
E -------------------------------------------------------

e -------------------------------------------------------
B -------------------------------------------------------
G -------------------------------------------------------
D -1h2-22222222-1h2-2222-44--1h2-22222222-1h2-2222-44----
A -------------------------------------------------------
E -------------------------------------------------------

e ------------------------------------------
B ------------------------------------------
G ------------------------------------------
D –6666666-77-999-111111-999-777-66-44-22---
A ------------------------------------------
E ------------------------------------------

Breakdown:
Intro Riff
Verse
Chorus
Intro Riff
Verse
Chorus
Solo
Chorus
Intro Riff
End on E

Any comments can be sent to my email.
Comments