Lit - My Own Worst Enemy Chords & Tabs


My Own Worst Enemy Chords & Tabs

Lit Chords & Tabs

Version: 3 Type: Chords 0 ratings
1 star 2 stars 3 stars 4 stars 5 stars

My Own Worst Enemy Chords

"My Own Worst Enemy" by LiT
off the album "A Place in the Sun"

I'm tired of all wrong tabs so I decided to tab it out myself.

Intro/Riff 1

G ----------------------------------4--2-------
D -1^2-2-2-2-2-2-2-2--1^2-2-2-2-2---4--2-------
A ----------------------------------2--0-------
E ---------------------------------------------

After 2 Bars of this, the rest of the band comes in and the rythym 
guitar plays:

E5 E5    (upstroke) E5 E5   (upstroke) E5 B5 A5 
Listen to the disc for the pattern...

This is the verse rythym as well.
[ Tab from: ]
For the Chorus ("Please tell me why...."), let these chords ring a few 

E5  F#5  A5  B5

do that twice, go back to the first riff ("Gone...")

repeat the same for verse 2 and chorus 2.

After chorus 2, play this riff instead of riff 1:

Riff 2

G ---------------------------------------------
D -1^2-2-2-2-2-2-2-2--1^2-2-2-2-2---4--4-------
A ---------------------------------------------
E ---------------------------------------------

Then go into the solo (I'll post that later), do another chorus, and the
bridge is just verse lyrics over the chorus power chords.  Play riff 1 
for two bars, and end on the A5 power chord.  Another modern rock hit.

E-mail for questions.