Lit - Miserable Chords & Tabs

 

Miserable Chords & Tabs

Lit Chords & Tabs

Version: 9 Type: Tab 0 ratings
1 star 2 stars 3 stars 4 stars 5 stars
comments

Miserable Tab

I like to play this tune in drop D tuning.
If you like it cool, if not oh well!
Solo not included. The riffs are very easy though.

     INTRO CLEAN
E-----------------------------------------------
B-----------------------------------------------
G-----------------------------------------------
D-12-12/7-7/4-0-5-11-11-------------12-9--------
A-12-12/7-7/4-0-5--9--9-X3 END WITH-12-9--------
D-12-12/7-7/4-0-5-------------------12-9--------
[ Tab from: http://www.guitartabs.cc/tabs/l/lit/miserable_tab_ver_9.html ]
     VERSE DISTORTION
E-----------------------------------------------
B-0---------------------------------------------
G-0-PM X8---------------------------------------
D-0-------4------REPEAT X 3---------------------
A-0-------4-X16---------------------------------
D---------4-------------------------------------

      CHORUS DISTORTED
E-----------------------------------------------
B-----------------------------------------------
G-----------------------------------------------
D-12----7----11----REPEAT X2-12----7----9-------
A-12-X4-7-X2-11-X2---THEN----12-X4-7-X2-9-X16---
D-12----7----11--------------12----7----9-------

REPEAT VERSE AND CHORUS THEN PLAY INTRO WITH 
DISTORTION THEN SOLO THEN BACK TO CHORUS THEN
INTRO CLEAN THEN TO CHORUS DISTORTED THEN TO INTRO
DISTORTEDENDING ON SAME NOTE LISTEN TO SONG TO
PERFECT.
Comments