Lit - Miserable Chords & Tabs

 

Miserable Chords & Tabs

Lit Chords & Tabs

Version: 2 Type: Tab 1 rating
1 star 2 stars 3 stars 4 stars 5 stars
comments

Miserable Tab

Song: Miserable
Artist: Lit
Album: A Place In The Sun
Track: 4
Track Length: 4 Minutes 16 Seconds
Tabbed By: El_Bevros@yahoo.com
Tuning: All Guitars Tuned Down One Half Step

/ - Slide Up
\ - Slide Down
X - Scratch
: - Let Ring
~ - Vibrato
p - Pull Off
^ - Bend Up
^( ) - Bend Up Then Back Down To Original Note

  
Intro. And Chorus, (0:00-0:17)
eb]-------------------------------------3:----3:-
Bb]-------------------------------------3:----3:-
Gb]--8---8-\-3---3--3-X-------------0:----------- X3
Db]--8---8-\-3---3--3-X--3---3---X--0:-----------
Ab]--6---6-\-1---1--1-X--3---3---X---------------
Eb]----------------------1---1---X--3:-----------

Then...(0:18-0:20)
eb]-----  
Bb]-----
Gb]--8:-
Db]--8:-  
Ab]--6:-  
Eb]-----


Verse, (0:22-0:27), (0:34-0:39), (0:46-0:51)
eb]----------------------------
Bb]-(7)---(7)---(7)---(7)------
Gb]--7-----7-----7-----7-------
Db]--7-----7-----7-----7-------
Ab]--5-----5-----5-----5-------
Eb]--6-----6-----6-----6---(0)-
                            * Play low E 2nd time only
Then...(0:28-0:33), (0:40-0:45), (0:52-0:56)
eb]-----------------------------------
Bb]-----------------------------------
Gb]-----------------------------------
Db]-5---5---5---5--5---5---5---5--(5)-
Ab]-5---5---5---5--5---5---5---5--(5)-
Eb]-3---3---3---3--3---3---3---3--(3)-
                                  ** Play Chord 2nd Time Only

I have split the pre-chorus into 4 bits as it contains
2 guitars so this should make it clearer what to play.

Pre-Chorus, (0:57-1:20) 
Guitar 1
eb]----------------------------------
Bb]----------------------------------
Gb]-8--8---8--X-X--3--3--X-X-7---7---
Db]-8--8---8--X-X--3--3--X-X-7---7---
Ab]-6--6---6--X-X--1--1--X-X-5---5---
Eb]----------------------------------

Guitar 2
eb]----------------------------------
Bb]----------------------------------
Gb]-8--8---8--X-X--3--3------2^--2~~-
Db]-8--8---8--X-X--3--3--------------
Ab]-6--6---6--X-X--1--1--------------
Eb]----------------------------------

Then...
Guitar 1
eb]----------------------------------
Bb]----------------------------------
Gb]-8--8---8--X-X--3--3--X-X-7---7---
Db]-8--8---8--X-X--3--3--X-X-7---7---
Ab]-6--6---6--X-X--1--1--X-X-5---5---
Eb]----------------------------------
[ Tab from: http://www.guitartabs.cc/tabs/l/lit/miserable_tab_ver_2.html ]
Guitar 2
eb]----------------------------------
Bb]----------------------------------
Gb]-2^-------------3--3------2^--2~~-
Db]----------------3--3--------------
Ab]----------------1--1--------------
Eb]----------------------------------

Then...
Guitar 1
eb]----------------------------------
Bb]----------------------------------
Gb]-8:----8-\-3---3:-----------------
Db]-8:----8-\-3---3:-----------------
Ab]-6:----6-\-1---1:-----------------
Eb]----------------------------------

Guitar 2
eb]----------------------------------
Bb]----------------------------------
Gb]-0--------------------------------
Db]-----------3---3-----3---3---3--3-
Ab]----------------------------------
Eb]----------------------------------

Then...
Guitar 1
eb]----------------------------------
Bb]----------------------------------
Gb]-7-7-7-7-7--7-7-7--7--7-7-7--7--7-
Db]-7-7-7-7-7--7-7-7--7--7-7-7--7--7-
Ab]-5-5-5-5-5--5-5-5--5--5-5-5--5--5-
Eb]----------------------------------

Guitar 2
eb]----------------------------------
Bb]----------------------------------
Gb]---------2^(2)-----2^(2)--2^(2)---
Db]-4:-------------------------------
Ab]----------------------------------
Eb]----------------------------------


Now go back and play the Verse another 2 times
the same way as before, (1:21-1:43)


Now play the Pre-Chorus again, (1:44-2:07) 


Now play the Chorus, which is the same as the intro, only 
with an extra slide to the Bb5 chord after the last chord
and let it ring. (2:08-2:28)  


Solo W/Wah And Tremelo Effects,  (2:31-2:56)
eb]--------------------------------18----17-------------18-
Bb]--15-15-13-15----15-15-15/18-15-------------18-18-15----
Gb]--------------------------------------------------------
Db]--------------------------------------------------------
Ab]--------------------------------------------------------
Eb]--------------------------------------------------------

eb]---17-17------(17)\10\-- Play the solo twice, but on the 
Bb]------------------------ 2nd time the last note is played
Gb]------------------------ many times and extends into
Db]------------------------ the Pre-Chorus.
Ab]------------------------
Eb]------------------------


Now Play the Pre-Chorus again (2:53-3:17)


Now play the intro. again (3:17-3:36)


Now play the Chorus again which is just the intro with 
distortion and a bent 2 is played on the G-string as
a fill. (3:40-4:16)


If you have any questions about this song or any requests 
for songs you would like me to tab please feel free to e-mail
me at the above address. Bye, Bye for now.
Comments