Lit - Miserable Chords & Tabs

 

Miserable Chords & Tabs

Lit Chords & Tabs

Version: 1 Type: Tab 0 ratings
1 star 2 stars 3 stars 4 stars 5 stars
comments

Miserable Tab

Song:Miserable
Artist:Lit
Album:A Place In The Sun

This is my first time TABing out a song I got this off the October 2000
issue of guitar world, so I know that it is right.
Tune your guitar to one half step(low to high Eb Ab Db Gb Bb Eb)
NOTE:ALL CHORDS SOUND ONE HALF STEP LOWER THAN WRITTEN
|--------------------------------------3-----3---------------------
|--------------------------------------3-----3---------------------
|-8-----8\\3---3----3----x-----------0------------8-----------------
|-8-----8\\3---3----3----x--3--------0------------8-----------------
|-6-----6\\1---1----1----x--3---------------------6-----------------
|--------------------------1--------3------------------------------


|------------------------------------------------------------------
|(7)------(7)--------(7)------(7)----------------------------------
|-7--------7----------7--------7-----------------------------------
|-7--------7----------7--------7------5-5-5-5-5-5-5-5-(5)----------
|-5--------5----------5--------5------5-5-5-5-5-5-5-5-(5)----------
|-6--------6----------6--------6------3-3-3-3-3-3-3-3-(3)----------

[ Tab from: http://www.guitartabs.cc/tabs/l/lit/miserable_tab.html ]
|------------------------------------------------------------------
|------------------------------------------------------------------
|-8--8----8--x-x--3---3---2---2---2--------------3--3-----2---2----
|-8--8----8--x-x--3---3--------------------------3--3--------------
|-6--6----6--x-x--1---1--------------------------1--1--------------
|------------------------------------------------------------------

|------------------------------------------------------------------
|------------------------------------------------------------------
|----0----------------------------2-(2)-----2--(2)----2--(2)-------
|----------3--3------3-3-3--3--4-----------------------------------
|------------------------------------------------------------------
|------------------------------------------------------------------

and the moment you\'ve all been waiting for that amazing solo...
|-----------------------------18---17------------18---17-17-(17)\\10\\
|---15-15-13---15-15-15/18-15----------18-18-15---------------------
|-------------------------------------------------------------------
|-------------------------------------------------------------------
|-------------------------------------------------------------------
|-------------------------------------------------------------------

well that\'s all there is too it if you have to have the sheet music 
to the song go out and get the October 2000 issue of Guitar World.

Comments