Lit - Miserable Chords & Tabs

 

Miserable Chords & Tabs

Lit Chords & Tabs

Version: 1 Type: Bass Tab 0 ratings
1 star 2 stars 3 stars 4 stars 5 stars
comments

Miserable Bass Tab

   
Lit
Miserable

tabbed by: Booga1
NOTES:
BECAUSE I'M A LAZY ASS AND DIDN'T WANT TO START OVER... I WROTE THIS IN 4/4 
TIME... THERE IS ONE TIME CHANGE, BUT IT'S ONLY FOR ONE MEASURE 
(BEFORE THE SOLO)... SORRY ABOUT THAT, I WON'T DO THIS ANYMORE I PROMISE...

() -- Tied note


Rest through the intro part...

   (watching this.. story about me...)
       W         E E E E E E E E   E E E E E E E E
G|-------------|-----------------|-----------------|
D|-------------|-----------------|-----------------|
A|-----R-------|-----------------|-----------------|
E|-------------|-2-2-2-2-2-2-2-2-|-2-2-2-2-2-2-2-2-|



   Q  Q  Q  Q    Q  Q  Q  Q    E E E E E E E E   E E E E E E SSSS
G|-------------|-------------|-----------------|------------------|
D|-------------|-------------|-----------------|------------------|
A|-0--0--0--0--|-0--0--0--0--|-----------------|---------------24-|
E|-------------|-------------|-2-2-2-2-2-2-2-2-|-2-2-2-2-2-2-20---|



   Q  Q  Q  Q    Q  Q  Q  Q    E E E E E E E E   E E E E E E SSSS
G|-------------|-------------|-----------------|------------------|
D|-------------|-------------|-----------------|------------------|
A|-0--0--0--0--|-0--0--0--0--|-----------------|---------------24-|
E|-------------|-------------|-2-2-2-2-2-2-2-2-|-2-2-2-2-2-2-20---|



   Q  Q  E Q  E   Q  Q  E Q  E   Q  Q  E Q  E   Q  Q  E Q  E
G|--------------|--------------|---------4--2-|--------------|
D|-0--0--0-0--0-|--------------|-0--0--0------|--------------|
A|--------------|-0--0--4-4--4-|--------------|-0--0--4-4--4-|
E|--------------|--------------|--------------|--------------|



   Q. Q  Q  E   Q  Q  E Q  E   E E E E E E E E   E E E E H
G|------------|--------------|-----------------|------------|
D|-0----------|--------------|-----------------|------------|
A|----------0-|-0--0--0-0--0-|-4-4-4-4-4-4-4-4-|-4-4-4-4-4--|
E|----2--4----|--------------|-----------------|------------|



   Q  Q  Q  Q    Q  Q  Q  Q    E E E E E E E E   E E E E E E SSSS
G|-------------|-------------|-----------------|------------------|
D|-------------|-------------|-----------------|------------------|
A|-R--0--0--0--|-0--0--0--0--|-----------------|---------------24-|
E|-------------|-------------|-2-2-2-2-2-2-2-2-|-2-2-2-2-2-2-20---|



   Q  Q  Q  Q    Q  Q  Q  Q    E E E E E E E E   E E E E E E SSSS
G|-------------|-------------|-----------------|------------------|
D|-------------|-------------|-----------------|------------------|
A|-0--0--0--0--|-0--0--0--0--|-----------------|---------------24-|
E|-------------|-------------|-2-2-2-2-2-2-2-2-|-2-2-2-2-2-2-20---|



   Q  Q  E Q  E   Q  Q  E Q  E   Q  Q  E Q  E   Q  Q  E Q  Q
G|--------------|--------------|---------4--2-|--------------|
D|-0--0--0-0--0-|--------------|-0--0--0------|--------------|
A|--------------|-0--0--4-4--4-|--------------|-0--0--4-4--4-|
E|--------------|--------------|--------------|--------------|


[ Tab from: http://www.guitartabs.cc/tabs/l/lit/miserable_btab.html ]
   Q. Q  Q  E   Q  Q  E Q  E   E E E E E E E E   E E E E E E E E
G|------------|--------------|-----------------|-----------------|
D|-0----------|--------------|-----------------|-----------------|
A|----------0-|-0--0--0-0--0-|-4-4-4-4-4-4-4-4-|-4-4-4-4-4-4-4-4-|
E|----2--4----|--------------|-----------------|-----------------|



   Q  Q  Q  Q    Q  Q  Q  SSSS   Q  Q  Q  Q    Q  Q  Q  Q
G|-------------|---------------|-------------|-------------|
D|-0--0--------|---------------|-0--0--------|-------------|
A|-------0--0--|------------24-|-------0--0--|-------------|
E|-------------|-0--0--2--20---|-------------|-0--0--2--2--|


                                                (SOLO)
   Q  Q  Q  Q    Q  Q  Q  Q    Q. H. E       W      E E E E E E E E 
G|-------------|-------------|----------||-|---||-|-----------------|
D|-0--0--------|-------------|-0--------||2|-R-||4|-----------------|
A|-------0--0--|-------------|----2-(2)-||4|---||4|-0-0-0-0-0-0-0-0-|
E|-------------|-0--0--2--2--|----------||-|---||-|-----------------|



   E E E E E E E E   E E E E E E E E   E E E E E E SSSS
G|-----------------|-----------------|------------------|
D|-----------------|-----------------|------------------|
A|-0-0-0-0-0-0-0-0-|-----------------|---------------24-|
E|-----------------|-2-2-2-2-2-2-2-2-|-2-2-2-2-2-2-20---|



   E E E E E E E E   E E E E E E E E   E E E E E E E E   E E E E E E E E
G|-----------------|-----------------|-----------------|-----------------|
D|-----------------|-----------------|-----------------|-4-2-0-----------|
A|-0-0-0-0-0-0-0-0-|-0-0-0-0-0-0-0-0-|-----------------|-------4-2-0-2-4-|
E|-----------------|-----------------|-2-2-2-2-2-2-2-2-|-----------------|



   Q  Q  E Q  E   Q  Q  E Q  E   Q  Q  E Q  E   Q  Q  E Q  E
G|--------------|--------------|---------4--2-|--------------|
D|-0--0--0-0--0-|--------------|-0--0--0------|--------------|
A|--------------|-0--0--4-4--4-|--------------|-0--0--4-4--4-|
E|--------------|--------------|--------------|--------------|



   Q. Q  Q  E   Q  Q  E Q  E   E E E E E E E E   E E E E E E E E
G|------------|--------------|-----------------|-----------------|
D|-0----------|--------------|-----------------|-----------------|
A|----------0-|-0--0--0-0--0-|-4-4-4-4-4-4-4-4-|-4-4-4-4-4-4-4-4-|
E|----2--4----|--------------|-----------------|-----------------|



   H  H
G|-------|---|---|---|---|---|---|---|
D|-------|---|---|---|---|---|---|---|
A|-5--R--|-R-|-R-|-R-|-R-|-R-|-R-|-R-|
E|-------|---|---|---|---|---|---|---|



   Q  Q  Q  Q    Q  Q  Q  SSSS   Q  Q  Q  Q    Q  Q  Q  Q
G|-------------|---------------|-------------|-------------|
D|-0--0--------|---------------|-0--0--------|-------------|
A|-------0--0--|------------24-|-------0--0--|-------------|
E|-------------|-0--0--2--20---|-------------|-0--0--2--2--|


                                                
   Q  Q  Q  Q    Q  Q  Q  SSSS   Q  Q  Q  Q    Q  Q  Q  Q  
G|-------------|---------------|-------------|-------------|
D|-0--0--------|---------------|-0--0--------|-------------|
A|-------0--0--|------------24-|-------0--0--|-------------|
E|-------------|-0--0--2--20---|-------------|-0--0--2--2--|



   Q  Q  Q  Q    Q  Q  Q  Q    Q. H   E
G|-------------|-------------|-----------|
D|-0--0--------|-------------|-0---------|
A|-------0--0--|-------------|-----------|
E|-------------|-0--0--2--2--|----2--(2)-|


Comments