Lit - Lipstick And Bruises Chords & Tabs

 

Lipstick And Bruises Chords & Tabs

Lit Chords & Tabs

Version: 7 Type: Tab 0 ratings
1 star 2 stars 3 stars 4 stars 5 stars
comments

Lipstick And Bruises Tab

   
Lipstick and Bruises-Lit
Album: Atomic
Tuning: Eb Ab Db Gb Bb Eb

E---------------------------------------
B---------------------------------------
G---------------------------7-7-6~~~~---
D-5h7-7-5-7-7-5-7-7-5-7-5--------------- x3
A-0---0-0-0-0-0-0-0-0-0-0---------------
E---------------------------------------

E---------------------------------------
B---------------------------------------
G---------------------------7b----------
D-5h7-7-5-7-7-5-7-7-5-7-5---------------
A-0---0-0-0-0-0-0-0-0-0-0---------------
E---------------------------------------

Verses:

E---------------------------------------
B---------------------------------------
G----------------------------7--6-------
D-5h7-7-5-7--let ring-------------------
A-0---0-0-0-----------------------------  x3
E---------------------------------------

E---------------------------------------
B----------------------------------0-0--
G----------------------------7-7-6-0-0--
D-5h7-7-5-7-7-5-7-7-5-7-5----------0-0--
A-0---0-0-0-0-0-0-0-0-0-0---------------
E---------------------------------------



Pre-Chorus:


E---------------------------------------
B-3-3-3-3-3-3-3-3-3-3-3-3-3-3-3-3-------
G-2-2-2-2-2-2-2-2-3-3-3-3-3-3-3-3------- x2
D-0-0-0-0-0-0-0-0-0-0-0-0-0-0-0-0-------
A---------------------------------------
E---------------------------------------

[ Tab from: http://www.guitartabs.cc/tabs/l/lit/lipstick_and_bruises_tab_ver_7.html ]
E---------------------------------------
B-3-3-3-3-3-3-3-3-3-3-3-3-3-3-----------
G-2-2-2-2-2-2-2-2-3-3-3-3-3-3-----------
D-0-0-0-0-0-0-0-0-0-0-0-0-0-0-0-x\------
A-----------------------------0-x\------
E-----------------------------0-x\------

Chorus:

E---------------------------------------
B---------------------------------------
G-------------5-4-3---3-3-----3--------- x4
D-3---3-3-----5-4-3---3-3-----3---------
A-3---3-3-----3-2-1---1-1-----1---0-----
E-1---1-1-------------------------0-----

Re-Intro:

E---------------------------------------
B---------------------------------------
G---------------------------7--6--------
D-5h7-7-5-7-7-5-7-7-5-7-5---------------
A-0---0-0-0-0-0-0-0-0-0-0---------------
E---------------------------------------

Solo:

E---------------------------------------
B---------------------------------------
G-------------7--6---------------7--6---
D-5H7-7-5-7------------7-7-5-7~~~-------
A-0---0-0-0----------0-0-0-0------------
E---------------------------------------

E---------------------------------------
B---------------------------------------
G---7b------6--7b-----6/14--play intro riff
D-0-X-----0-X--X------------------------
A-0-X-----0----X----0-------------------
E---------------------------------------

outro:

E---------------------------------------
B---------------------------------------
G-------------5-4-3-3-3-3-3-3-3-3-------
D-3-3-3-3-3-3-5-4-3-3-3-3-3-3-3-3------- x4
A-3-3-3-3-3-3-3-2-1-1-1-1-1-1-1-1-------
E-1-1-1-1-1-1---------------------------

E---------------------------------------
B---------------------------------------
G-------------------------------7-7-6---
D-5-7-7-5-7-7-5-7-7-5-7-7-5-7-7---------
A-0-0-0-0-0-0-0-0-0-0-0-0-0-0-0---------
E---------------------------------------

trevor jones
timmy91199@yahoo.ca
Comments