Lit - Lipstick And Bruises Chords & Tabs

 

Lipstick And Bruises Chords & Tabs

Lit Chords & Tabs

Version: 4 Type: Tab 0 ratings
1 star 2 stars 3 stars 4 stars 5 stars
comments

Lipstick And Bruises Tab

I'VE BEEN BORROWING TABS FOR A LONG TIME SO I THOUGHT I'D HELP OUT
GREAT SONG!!!
INTRO
E  --------------------------------------
B  --------------------------------------
G  ------------------------7-7-6---------
D  5-7-7-5-7-7-5-7-7-5-7-5---------------
A  --------------------------------------
E  --------------------------------------  
[ Tab from: http://www.guitartabs.cc/tabs/l/lit/lipstick_and_bruises_tab_ver_4.html ]
VERSE
E  --------------------------------------
B  --------------------------------------
G  --------------------------7-6---------
D  5-7-7-5-7-----------------------------
A  --------------------------------------
E  --------------------------------------  


WHEN LIGHTS GO DOWN
E  --------------------------------------
B  --------------------------------------
G  7-------3-----------------------------
D  7-------3-----------------------------
A  5-------1-----------------------------
E  --------------------------------------

THIS IS WHAT YOU ALWAYS WANTED
E  --------------------------------------
B  --------------------------------------
G  ------5-4-3---------------------------
D  3-----5-4-3---------------------------
A  3-----3-2-1---------------------------
E  1-------------------------------------
Comments