Lit - Happy Chords & Tabs

 

Happy Chords & Tabs

Lit Chords & Tabs

Version: 1 Type: Tab 0 ratings
1 star 2 stars 3 stars 4 stars 5 stars
comments

Happy Tab

#----------------------------------PLEASE NOTE---------------------------------#
#This file is the author's own work and represents their interpretation of the #
#song. You may only use this file for private study, scholarship, or research. #
#------------------------------------------------------------------------------##

"happy"______________________________________________________________________________________ _______intro+verses:_____________________________________________

-----------------------------------------------------------------------------------
-----------------------------------------------------------------------------------
--4-4-4-4--3/4-4-4-4-----------------------------------------------------------
--4-4-4-4--3/4-4-4-4--6-6-6-6--4-4-4-4-----------------------------------------
--2-2-2-2--1/2-2-2-2--6-6-6-6--4-4-4-4-----------------------------------------
-------------------------4-4-4-4--2-2-2-2-----------------------------------------

____________________________________________________________________________________________ ________pre-chorus:________________________________________________
[ Tab from: http://www.guitartabs.cc/tabs/l/lit/happy_tab.html ]
------------------------------------------------------------------------------------
------------------------------------------------------------------------------------
------------------------------------------------------------------------------------
--6-6-6-6--4-4-4-4--3-3-3-3-3-3-3-3-3-3----------------------------------------
--6-6-6-6--4-4-4-4--3-3-3-3-3-3-3-3-3-3----------------------------------------
--4-4-4-4--2-2-2-2--1-1-1-1-1-1-1-1-1-1----------------------------------------

____________________________________________________________________________________________ ________chorus:____________________________________________________

------------------------------------------------------------------------------------
------------------------------------------------------------------------------------
------------------------------------------------------------------------------------
--7-7-7-7-7--5-5-5-5-5--8-8-8-8-8--6-6-6-6-6----------------------------------
--7-7-7-7-7--5-5-5-5-5--8-8-8-8-8--6-6-6-6-6----------------------------------
--5-5-5-5-5--3-3-3-3-3--6-6-6-6-6--4-4-4-4-4----------------------------------

____________________________________________________________________________________________ ________3rd verse:_________________________________________________

------------------------------------------------------------------------------------
------------------------------------------------------------------------------------
------------------------------------------------------------------------------------
--3-3-3-3-3-3--7-7-7-7-7-7-------------------------------------------------------
--3-3-3-3-3-3--7-7-7-7-7-7-------------------------------------------------------
--1-1-1-1-1-1--5-5-5-5-5-5-------------------------------------------------------
Comments