Lit - Four Chords & Tabs

 

Four Chords & Tabs

Lit Chords & Tabs

Version: 2 Type: Tab 0 ratings
1 star 2 stars 3 stars 4 stars 5 stars
comments

Four Tab

   
#-----------------------------PLEASE NOTE-------------------------------------#
#This OLGA file is the author's own work and represents their interpretation  #
#of the song. You may only use this file for private study, scholarship, or   #
#research. Remember to view this file in Courier, or some other monospaced    #
#font. See http://www.olga.net/faq/ for more information.                     #
#-----------------------------------------------------------------------------#

Date: Sat, 27 May 2000 13:14:53 -0400
From: "Effigy ..." 
Subject: l/lit/four.tab

Song: Four
Album: Place In The Sun, Track 1
Artist: Lit
Transcribed by Effigy - effigyweb@hotmail.com

Lit doesn't seem to be a popular candidate for tabbing.. in fact,
I've just found one set of tabs for this album and they were so
incredibly wrong it was scary. Enjoy and feel free to request more!

(I'm not sure if this song is in drop-D or down a half-step, but both work
and drop-D
is a lot easier to get into so I'm going to tab it in that tuning. Also
note: the intro
sounds better when played in half-step down, so if you want it to sound
perfect and for
easier playing you should do that.)
Tuning: DADGBE

Intro: w/heavy distortion
   Eb  A   Bb
e|-------------|
B|-------------|
G|-8-8---------|
D|-8-8-7-7-8-8-|
A|-6-6-7-7-8-8-|
D|-8-8-7-7-8-8-|

Verse: w/heavy distortion
    Bb      F       G       Eb
e|---------------------------------|
B|---------------------------------|
G|---------------------------------|
D|-8-8-8---3-3-3---5-5-5---1-1-1-1-|
A|-8-8-8---3-3-3---5-5-5---1-1-1-1-|
D|-8-8-8---3-3-3---5-5-5---1-1-1-1-|
PM---|  PM---|  PM---|

Pre-chorus: w/heavy distortion
    Bb      G       Eb      F
e|---------------------------------|
B|---------------------------------|
G|---------------------------------|
D|-8-8-8-8-5-5-5-5-1-1-1-1-3-3-3-3-|
A|-8-8-8-8-5-5-5-5-1-1-1-1-3-3-3-3-|
D|-8-8-8-8-5-5-5-5-1-1-1-1-3-3-3-3-|
[ Tab from: http://www.guitartabs.cc/tabs/l/lit/four_tab_ver_2.html ]
Since each verse of the song has two different chord parts, I've
labeled the chords for the first two lines 'Verse' and the last two
lines 'Pre-chorus' altho technically both are the verse.

Chorus:
    Bb              F               Eb              F
e|-----------------------------------------------------------------|---
B|-----------------------------------------------------------------|---
G|-----------------------------------------------------------------|---
D|-8-8-8-8-8-8-8-8-3-3-3-3-3-3-3-3-1-1-1-1-1-1-1-1-3-3-3-3-3-3-3-3-|-1-
A|-8-8-8-8-8-8-8-8-3-3-3-3-3-3-3-3-1-1-1-1-1-1-1-1-3-3-3-3-3-3-3-3-|-1-
D|-8-8-8-8-8-8-8-8-3-3-3-3-3-3-3-3-1-1-1-1-1-1-1-1-3-3-3-3-3-3-3-3-|-1-

Pre-solo:
    Db                              Ab
e|-----------------------------------------------------------------|
B|-----------------------------------------------------------------|
G|-6-6-6-6-6-6-6-6-6-6-6-6-6-6-6-6---------------------------------|
D|-6-6-6-6-6-6-6-6-6-6-6-6-6-6-6-6-6-6-6-6-6-6-6-6-6-6-6-6-6-6-6-6-|
A|-4-4-4-4-4-4-4-4-4-4-4-4-4-4-4-4-6-6-6-6-6-6-6-6-6-6-6-6-6-6-6-6-|
D|---------------------------------6-6-6-6-6-6-6-6-6-6-6-6-6-6-6-6-|

   B                               Gb                  F   Eb  F
e|----------------------------------------------------------------|
B|----------------------------------------------------------------|
G|4-4-4-4-4-4-4-4-4-4-4-4-4-4-4-4---------------------------------|
D|4-4-4-4-4-4-4-4-4-4-4-4-4-4-4-4-4-4-4-4-4-4-4-4-4-4-3-3-1-1-3-3-|
A|2-2-2-2-2-2-2-2-2-2-2-2-2-2-2-2-4-4-4-4-4-4-4-4-4-4-3-3-1-1-3-3-|
D|--------------------------------4-4-4-4-4-4-4-4-4-4-3-3-1-1-3-3-|
                                   *The second time through B's are
                                     played instead of Gb, F, and Eb

Solo:
e|-------------------------------------|-----------------------||
B|-------------------------------------|-----------------------||
G|-101010-7-7---------101010-7-7---7---|o------7-10~------7---o||
D|-----------10-8~8~8~----------10~--8~|o-/8-10-----/8-10---8~o||
A|-------------------------------------|-----------------------||
D|-------------------------------------|-----------------------||
Comments